Que Ya Viví, Que Te Vas, Los Bunkers (acordes)

Autor: Anónimo | 31372 visualizaciones

(Mim) x2




e|----------------------------------------------0---|
B|----------------------------------------------0---|
G|--------------------------4------4------------0---|
D|--2-----2-4-5-7-5-4-2-4-5----7-5----7-5-4-2-0-2---|
A|-----2----------------------------------------2---|
E|----------------------------------------------0---|



Creo que la luna ya es muy alta
    y en la caricia falta
un viaje a la humedad

(Lam) - (Sim) - (Dom)

(Mim)              (Mim)
creo que de noche me despierto

(Mim)      (Mim)
con frio, al descubierto

(Mim)      (Mim)
tanteando oscuridad


e|---------------------------|
B|---------------------------|
G|---------------------------|
D|---------------------------|
A|--0-0-0-0-0-0-2-2-2-3-3-3--|
E|---------------------------|


(Solm)                            (Sim)
Creo que la lluvia esta cayendo

                 (Rem)
y yo voy sonriendo dejandome mojar


e|---------------------------------------------------|
B|---------------------------------------------------|
G|---------------------------------------------------|
D|-6-6-6-6-6-6-7-7-7-7-9-9-9-------------------------|
A|---------------------------------------------------|
E|---------------------------------------------------|

creo que me va a quitar el sueño un dedo aqui, un labio alla
e|---------------------------------------------------|
B|---------------------------------------------------|
G|---------------------------------------------------|
D|-2-2-2-2-2-2-2-2-4-4-4-4-4-4-4-4-5-2-4-1-1-1-1-1-1-|
A|---------------------------------------------------|
E|---------------------------------------------------|

  que te perdi, que ya no estas          que ya vivi
e|---------------------------------------------------|
B|---------------------------------------------------|
G|---------------------------------------------------|
D|-1-1---2---0---------------------------------------|
A|-----2---0---3-3-3-2-2-2---------------------------|
E|-------------------------5-5-5-3-3-3-3-2-2-2-2-2-2-|



              que te vas
e|---------------------------------------------------|
B|---------------------------------------------------|
G|---------------------------------------------------|
D|---------------------------------------------------|
A|---------2-2-2-2-2-2-2-2---------------------------|
E|-2-2-2-2-------------------------------------------|


e|----------------------------------------------0----|
B|----------------------------------------------0----|
G|--------------------------4------4------------0----|
D|--2-----2-4-5-7-5-4-2-4-5----7-5----7-5-4-2-0-2----| x2
A|-----2----------------------------------------2----|
E|----------------------------------------------0----|


Esto se toca entremedio del punteo que se hace en toda
la canción.
e|----12----10--------------12----10-----------------|
B|-12----12----12--------12----12----12--------------|
G|----------------12-14-----------------12-14--------|
D|---------------------------------------------------|
A|---------------------------------------------------|
E|---------------------------------------------------|

Deje pasar algunas horas
pupila veladora por si me daba igual

(Lam) - (Sim) - (Dom)

(Mim)             (Mim)
tu tiempo se metio en mi tiempo

(Mim)        (Mim)
momentos y momentos

(Mim)        (Mim)
que no quieren pasar.

e|---------------------------|
B|---------------------------|
G|---------------------------|
D|---------------------------|
A|--0-0-0-0-0-0-2-2-2-3-3-3--|
E|---------------------------|

(Solm)                      (Sim)
Y he aqui que la gruitarra

                       (Rem)
vuelve a soltar amarras

canta y gime al volar

e|---------------------------------------------------|
B|---------------------------------------------------|
G|---------------------------------------------------|
D|-6-6-6-6-6-6-7-7-7-7-9-9-9-------------------------|
A|---------------------------------------------------|
E|---------------------------------------------------|

creo que me va a quitar el sueño un dedo aqui, un labio alla
e|---------------------------------------------------|
B|---------------------------------------------------|
G|---------------------------------------------------|
D|-2-2-2-2-2-2-2-2-4-4-4-4-4-4-4-4-5-2-4-1-1-1-1-1-1-|
A|---------------------------------------------------|
E|---------------------------------------------------|

  que te perdi, que ya no estas          que ya vivi
e|---------------------------------------------------|
B|---------------------------------------------------|
G|---------------------------------------------------|
D|-1-1---2---0---------------------------------------|
A|-----2---0---3-3-3-2-2-2---------------------------|
E|-------------------------5-5-5-3-3-3-3-2-2-2-2-2-2-|



              que te vas
e|---------------------------------------------------|
B|---------------------------------------------------|
G|---------------------------------------------------|
D|---------------------------------------------------|
A|---------2-2-2-2-2-2-2-2---------------------------|
E|-2-2-2-2-------------------------------------------|

e|----------------------------------------------0----|
B|----------------------------------------------0----|
G|--------------------------4------4------------0----|
D|--2-----2-4-5-7-5-4-2-4-5----7-5----7-5-4-2-0-2----| x2
A|-----2----------------------------------------2----|
E|----------------------------------------------0----|

[Se toca entremedio del primer punteo]
e|----12----10--------------12----10-----------------|
B|-12----12----12--------12----12----12--------------|
G|----------------12-14-----------------12-14--------|
D|---------------------------------------------------| x2
A|---------------------------------------------------|
E|---------------------------------------------------|


(Solm) - (Sim) - (Rem)


e|---------------------------------------------------|
B|---------------------------------------------------|
G|---------------------------------------------------|
D|-6-6-6-6-6-6-7-7-7-7-9-9-9-------------------------|
A|---------------------------------------------------|
E|---------------------------------------------------|

creo que me va a quitar el sueño un dedo aqui, un labio alla
e|---------------------------------------------------|
B|---------------------------------------------------|
G|---------------------------------------------------|
D|-2-2-2-2-2-2-2-2-4-4-4-4-4-4-4-4-5-2-4-1-1-1-1-1-1-|
A|---------------------------------------------------|
E|---------------------------------------------------|

  que te perdi, que ya no estas          que ya vivi
e|---------------------------------------------------|
B|---------------------------------------------------|
G|---------------------------------------------------|
D|-1-1---2---0---------------------------------------|
A|-----2---0---3-3-3-2-2-2---------------------------|
E|-------------------------5-5-5-3-3-3-3-2-2-2-2-2-2-|



              que te vas
e|---------------------------------------------------|
B|---------------------------------------------------|
G|---------------------------------------------------|
D|---------------------------------------------------|
A|---------2-2-2-2-2-2-2-2---------------------------|
E|-2-2-2-2-------------------------------------------|


e|----------------------------------------------0----|
B|----------------------------------------------0----|
G|--------------------------4------4------------0----|
D|--2-----2-4-5-7-5-4-2-4-5----7-5----7-5-4-2-0-2----| x3
A|-----2----------------------------------------2----|
E|----------------------------------------------0----|


e|----12----10--------------12----10-----------------|
B|-12----12----12--------12----12----12--------------|
G|----------------12-14-----------------12-14--------|
D|---------------------------------------------------| x3
A|---------------------------------------------------|
E|---------------------------------------------------|

[Este es el punteo final de la canción]
e|-----------------------------------------------0---|
B|-----------------------------------------------0---|
G|--------------------------4--------------------0---|
D|--2-----2-4-5-7-5-4-2-4-5----7-5-4--7-5-4--2-1-2---|
A|-----2-----------------------------------------2---|
E|-----------------------------------------------0---|

Comentarios del colaborador: :D

Aviso: Este fichero es trabajo propio de su transcriptor y representa su interpretación personal de la canción. El material contenido en esta página es para exclusivo uso privado, por lo que se prohibe su reproducción o retransmisión, así como su uso para fines comerciales.

Comentarios en Facebook: