Los Premios, Los Bunkers (tablatura)

Autor: Anónimo | 28664 visualizaciones

MI                SOL#m
Hoy quisiera proponer
               LAm      SI    DO-LAm
Anclar esta vorahine, oh
   MI                    SOL#m
Forzar promesas no esta bien
                     LAm      SI  SI7
El mar se vuelve a recoger, oh

       DO#m                  SOL#m
Pues bien, no se donde esconder
       DO#m                 SOL#m
Los premios que me dio tu amor
     DO#m               SOL#m
Tal vez, preferirias saber
    LAm   LA              SI
Que ya no soy igual que tu

1|-------------------------------------3-2-0----------|
2|---------------------------------1---------1-1-3-1-0|
3|-4-4-6-4-2-1-2-4---4-6-4-2-1-2-2---2----------------|

1|--------------3-5-7------7-9-7-5-4-5-7-----7-9-7-5-4|
2|--------2-4-6-------9------------------9------------|
3|-0-2-4----------------9------------------8----------|

1|-0-0-5-0-8-5-0-10----10---12-10-8-------------------|
2|------------------10------------------7---7-6-4-2---|
3|------------------------------------8----8-5-4-3-1--|
4|----------------------------------9-----------------|

       DO#m                  SOL#m
Pues bien, no se donde esconder
       DO#m                 SOL#m
Los premios que me dio tu amor
     DO#m               SOL#m
Tal vez, preferirias saber
     LAm     LA             SI
Mi amor se fue y me fui con el

OUTRO:Mi-Do-La-Mi-Do-La-Mi
Aviso: Este fichero es trabajo propio de su transcriptor y representa su interpretación personal de la canción. El material contenido en esta página es para exclusivo uso privado, por lo que se prohibe su reproducción o retransmisión, así como su uso para fines comerciales.

Comentarios en Facebook: