La Era Está Pariendo Un Corazón, Los Bunkers (tablatura)

Autor: Anónimo | 40069 visualizaciones

aca les tengo la tab de " la era esta pariendo un corazon"·

 ya en primer lugar la intro se ocups un electro iman ( ebow) ,
 lo que le da el efecto si le pones distocion .

e|----------------------------------------------|
B|----------------------------------------------|
G|----------------------------------------------|
D|-----15~--16~---10~--15~--16~--15~--13~---11~-|
A|----------------------------------------------|  X 2
E|----------------------------------------------|

esta parte yo lo ago con acordes 5º pero la puedes hacer como les guste

   C#                    F#
La Era está pariendo un corazón
                           D#m
no puede más, se muere de dolor
y hay que acudir corriendo
     Fm
pues se cae el porvenir. (BIS)

  F#              G#            C#
En cualquier selva del mundo

este puente se hace al final en el Fm del coro

e|--------------------------------------|
B|--------------------------------------|
G|--------------------------------------| esto se toca repetidas veses
D|--------------------------------------|
A|--------3--3--1-----------------------|
E|--2--4-----------4--2--1--------------|

despues regresa el verso , este ase un punteo mas o menos haci


e|--------------------------------------|
B|-------------18---16------------------|
G|-------18------------18---------------|
D|----------18------------18------------|
A|--16----------------------------------|  asi todo el verso
E|--------------------------------------|

ahora nuevamente el coro con una varicion en la letra


    C#                    F#
La Era está pariendo un corazón
                           D#m
no puede más, se muere de dolor
y hay que acudir corriendo
     Fm
pues se cae el porvenir.
    C#                   F#
Debo dejar la casa y el sillón
                          D#m
la madre vive hasta que muere el sol
y hay que quemar el cielo
  Fm
si es preciso, por vivir.

  F#              G#
Por cualquier hombre del mundo
C#              D#m Fm F# SOL#
Por cualquier casa

aca esta la entrada al solo


e|--------------------------------------------|
B|--------------------------------------------|
G|--------------------------------------------|
D|--------------------------------------------|
A|------------4----------------3-3--1---------|
E|-(0)-2--2-----2--1--1--2--4---------4--2--1-|

F# G# = estos acordes que seguien en la entrada al solo


 ahora el solo


e|-9------------------------------------|
B|---9----------------------------------|
G|-----10-11-10-------------------------|
D|--------------11----------------------|
A|-----------------11--9--8-------------|
E|--------------------------9-----------|

e|-9------------------------------------|
B|---9----------------------------------|
G|-----10-11-10-------------------------|
D|--------------11----------------------|
A|-----------------11--9--8--9--8-------|
E|--------------------------------------|

e|-9------------------------------------|
B|---9----------------------------------|
G|-----10-11-10-------------------------|
D|--------------11----------------------|
A|-----------------11--9--8-------------|
E|--------------------------9-----------|


e|-8------------------------------------|
B|---9----------------------------------|
G|-----10-11-10-------------------------|
D|--------------11--10------------------|
A|----------------------11--9--8--------| asi asta que dura la cancion
E|--------------------------------------|


 en vivo que dieron un final si quien lo tocan haci
 para terminar la cancion


e|--------------------------|
B|--------------------------|
G|----------11--10~---------|
D|--10--11------------------|
A|--------------------------|
E|--------------------------|

y seria toda la cancion , esta cancion me consto muxo sacarla
pero se pudo
espero que les guste esta cancion y que ojala les sirva
adios
Aviso: Este fichero es trabajo propio de su transcriptor y representa su interpretación personal de la canción. El material contenido en esta página es para exclusivo uso privado, por lo que se prohibe su reproducción o retransmisión, así como su uso para fines comerciales.

Comentarios en Facebook: