Instrumental 1, Los Bunkers (tablatura)

Autor: Anónimo | 22775 visualizaciones

----------------------------------------------------------
B----------------------------------------------------------
G----------------------------------------------------------
D----------------------------------------------------------
A----------------------------------------------------------
E--0-5-5-5-0-5-7--7--0-7-7-7-0-7-8--5----------------------

e----------------------------------------------------------
B----------------------------------------------------------
G----------------------------------------------------------
D----------------------------------------------------------
A----------------------------------------------------------
E--0-5-5-5-0-5-7--7--0-7-7-7-0-7-8--5----------------------

e----------------------------------------------------------
B----------------------------------------------------------
G----------------------------------------------------------
D----------------------------------------------------------
A-3-5-3-5-3-5-7-7-7-5-3-2----------------------------------
E--------------------------------5-3--5--5----------------

e----------------------------------------------------------
B----------------------------------------------------------
G----------------------------------------------------------
D----------------------------------------------------------
A-3-5-3-5-3-5-7-7-7-5-3-2----------------------------------
E--------------------------------5-3--5--5-----------------

e----------------------------------------------------------
B----------------------------------------------------------
G----------------------------------------------------------
D-7--------7--------7--------7-----------------------------
A---7-7-7----7-9-9----9-9-9----9--10-8---------------------
E----------------------------------------------------------

e----------------------------------------------------------
B----------------------------------------------------------
G----------------------------------------------------------
D-7--------7--------7--------7-----------------------------
A---7-7-7----7-9-9----9-9-9----9--10-8---------------------
E----------------------------------------------------------


e----------------------------------------------------------
B----------------------------------------------------------
G-5-7-5-7-5-7-9-9-9-7-5------------------------------------
D----------------------------9-7-5-7--7--------------------
A----------------------------------------------------------
E----------------------------------------------------------

e----------------------------------------------------------
B----------------------------------------------------------
G-5-7-5-7-5-7-9-9-9-7-5------------------------------------
D----------------------------9-7-5-7--7--------------------
A----------------------------------------------------------
E----------------------------------------------------------

e----------------------------------------------------------
B----------------------------------------------------------
G----------------------------------------------------------
D-10-10-10-10--9-7-10--7--9--------------------------------
A----------------------------------10--7-------------------
E----------------------------------------------------------

e----------------------------------------------------------
B-----------------------------------------5-3-----3-3------
G-----------------------------------2--5------2------------
D--7-7-7-7-5-3-7--3--2----2---3--5--------------4----------
A----------------------2-----------------------------------
E----------------------------------------------------------

e----------------------------------------------------------
B-----3----------------------------------------------------
G-5-4----5-4-5--2------------------------------------------
D----------------------------------------------------------
A----------------------------------------------------------
E----------------------------------------------------------

e----------------------------------------------------------
B----------------------------------------------------------
G----------------------------------------------------------
D----------------------------------------------------------
A----------------------------------------------------------
E--0-5-5-5-0-5-7--7--0-7-7-7-0-7-8--5----------------------

e----------------------------------------------------------
B----------------------------------------------------------
G----------------------------------------------------------
D----------------------------------------------------------
A-3-5-3-5-3-5-7-7-7-5-3-2----------------------------------
E--------------------------------5-3--5--5---------------



e----------------------------------------------------------
B----------------------------------------------------------
G----------------------------------------------------------
D-7--------7--------7--------------------------------------
A---7-7-7----7-9-9----9-9-9---12--10-8---------------------
E----------------------------------------------------------

e----------------------------------------------------------
B----------------------------------------------------------
G-5-7-5-7-5-7-9-9-9-7-5------------------------------------
D----------------------------9-7-5-7--7--------------------
A----------------------------------------------------------
E----------------------------------------------------------


e----------------------------------------------------------
B----------------------------------------------------------
G----------------------------------------------------------
D-5-7-5-7-5-7-9-9-9-7-6------------------------------------
A------------------------------8-7--5--3--7----------------
E----------------------------------------------------------

e----------------------------------------------------------
B----------------------------------------------------------
G----------------------------------------------------------
D----------------------------------------------------------
A---2-2-2-----2--4--4------4-4-4----4--5---2---------------
E-2---------2------------2--------2-----------------------

e----------------------------------------------------------
B----------------------------------------------------------
G----------------------------------------------------------
D--------------------------------2-------------------------
A---2-2-2-----2--4--4-----4-4-4-----5---2------------------
E-2---------2------------2---------------------------------



e----------------------------------------------------------
B----------------------------------------------------------
G----------------------------------------------------------
D-0-2-0-2-0-2--4-4-4--2------------------------------------
A-------------------------5--4--2-------2--2---------------
E-----------------------------------5----------------------

e----------------------------------------------------------
B----------------------------------------------------------
G----------------------------------------------------------
D-0-2-0-2-0-2--4-4-4--2------------------------------------
A-------------------------5--4--2-------2-2----------------
E-----------------------------------5----------------------

e------------------2-2-2-----------------------------------
B--3-5-3-5-3-5-----------5-3-2-----------------------------
G-------------------------------4--2--4--------------------
D----------------------------------------------------------
A----------------------------------------------------------
E----------------------------------------------------------

e----------------------------------------------------------
B----------------------------------------------------------
G----------------------------------------------------------
D-0-2-0-2-0-2--4-4-4--2------------------------------------
A-----------------------------5--4--2-------2--------------
E----------------------------------------5-----------------
Aviso: Este fichero es trabajo propio de su transcriptor y representa su interpretación personal de la canción. El material contenido en esta página es para exclusivo uso privado, por lo que se prohibe su reproducción o retransmisión, así como su uso para fines comerciales.

Comentarios en Facebook: