Deudas, Los Bunkers (acordes)

Autor: Anónimo | 24082 visualizaciones

dofalasosremsol
Intro: Do- Sol- La#- Fa


Do                        Sol                   La#
Soy un montón de cuentas que en vida no puedo pagar

La#                       Fa
Soy un montón de deudas que jamás podre saldar

Do                       Sol                 La#
Todo lo que junte hasta hoy mañana no me servirá

La#                        Fa
Las cosas que me harán mejor no las puedo comprar


Coro:
     Rem                          Sol 
Y cansado de tanto andar por la calles sin pensar

    Rem                           Sol                     Do
Que he dejado mis pies atrás sin saber, sin saber a donde van


Do                      Sol                 La#
Yo siempre me negué a creer en una vieja religión

  La#                  Fa
Tal vez me equivoque debi escoger el mal menor

Do             Sol                       La#
Mira mi alrededoooor buscando alguna luuuuuz

 La#                 Fa
pero no había nada excepto tu, excepto tu


Coro:
       Rem                         Sol 
Y cansado de tanto andar por la calles sin pensar

     Rem                           Sol                    Do
Que he dejado mis pies atrás sin saber, sin saber a donde van


Do      Sol        La#                Fa
Uuuhooooooo uuhhoooooo uhoooooooooooo uhhhhoooooo uhhhhooooooo x2

Solo: Do- Sol- La#- Fa


e|------333----111---333---11--00---------000---111-----|
B|----------------------------------333-----------------|
G|------------------------------------------------------|
D|------------------------------------------------------|
A|------------------------------------------------------|
E|------------------------------------------------------|

e|------00---------000---111---00---------------33333333|
B|-----------333--------------------333---11111---------|
G|------------------------------------------------------|
D|------------------------------------------------------|
A|------------------------------------------------------|
E|------------------------------------------------------|

esto lo pueden acomodar donder quieran, en el doceavo traste,
donde sea, solo sigan el patron.

Coro:
       Rem                         Sol 
Y cansado de tanto andar por la calles sin pensar

     Rem                           Sol                  Do
Que he dejado mis pies atrás sin saber, sin saber a donde van


Do      Sol        La#                Fa
Uuuhooooooo uuhhoooooo uhoooooooooooo uho uho uho

Solo: Do- Sol- La#- Fa

e|------333----111---333---11--00---------000---111-----|
B|----------------------------------333-----------------|
G|------------------------------------------------------|
D|------------------------------------------------------|
A|------------------------------------------------------|
E|------------------------------------------------------|

e|------00---------000---111---00---------------33333333|
B|-----------333--------------------333---11111---------|
G|------------------------------------------------------|
D|------------------------------------------------------|
A|------------------------------------------------------|
E|------------------------------------------------------|

Comentarios del colaborador: LaCuerda.Net

Aviso: Este fichero es trabajo propio de su transcriptor y representa su interpretación personal de la canción. El material contenido en esta página es para exclusivo uso privado, por lo que se prohibe su reproducción o retransmisión, así como su uso para fines comerciales.

Comentarios en Facebook: