El Dragon, Los Brujos (acordes)

Autor: eloso_rock | 19188 visualizaciones



Intro x2

  Bm             D         A        E
e|-----------------------|-----------------|
B|-----------------------|-----------------|
G|-9-7-----7-----7-7-7-9-|-11--9--7--9-----|
D|-----9-7----9----------|--------------7--|
A|-----------------------|-----------------|
E|-----------------------|-----------------|


   Bm            D         A       E
e|-----------------------|-----------------|
B|-----------------------|-----------------|
G|-9-7-----7-----7-7-7-9-|------7----------|
D|-----9-7----9----------|-7--7----9-------|
A|-----------------------|-----------------|
E|-----------------------|-----------------|



A
Vengo del sol con mi dragón
       Am7
con su boca de fuego
    Fmaj7/A           D9  E
derrito el hielo y espero


A
vengo del sol, vengo de lejos
      Am7
no me tengas miedo
   Fmaj7/A             D9   E
hará un agujero en el cielo


A
uno dos tres, una y otra vez
      Am7
no me tengas miedo
  Fmaj7/A             D9  E
sube y disfruta del vuelo


A
corre la voz, vengo del sol
Am7
corre la voz, corre al dragón
Fmaj7/A
corre la voz, vengo por vos
D9                 E
vengo del sol con mi dragón


Repite Punteo Introducción x2

Repite Cuatro estrofas

Repite Punteo Introducción (Un poco modificado) x4

------

Fmaj7/A (Fa Mayor con séptima mayor, y bajo en La)

e|-0-|
B|-1-|
G|-2-|
D|-3-|
A|-0-|
E|-x-|


Am7 (La menor con séptima menor)

e|-0-|
B|-1-|
G|-0-|
D|-2-|
A|-0-|
E|-x-|

D9 (Re mayor novena)

e|-0-|
B|-1-|
G|-2-|
D|-0-|
A|-x-|
E|-x-|





Calificar esta versión:
Aviso: Este fichero es trabajo propio de su transcriptor y representa su interpretación personal de la canción. El material contenido en esta página es para exclusivo uso privado, por lo que se prohibe su reproducción o retransmisión, así como su uso para fines comerciales.