Besos Perdidos, Los Auténticos Decadentes (tablatura)

Autor: Anónimo | 16009 visualizaciones

la transcripcion de acordes esta chingona ahi les dejo
el intro y el solo que hace a media cancion. chidez banda

E----------------------------------------------------
a----------------------------------------------------
d----------------------------------------------------
g----------------------------------------------------
b13-----16-15-16---15h16-13----13------16-15-16------
e--15-13---------13---------------15-13---------13-15


E-----------------------------------
a-----------------------------------
d-----------------------------------
g-----------------------------------
b--------------15-----16-16-18-20-13
e13-13-15-15s16---------------------

E-----------------------------------
a-----------------------------------
d-----------------------------------
g-----------------------------------
b15-15-16-18-15h16-15-16-15-13-8-
e--------------------------------

je creo que me pase por un traste pueden recorrerlas todas
un traste para atras pero igual suena chido
Calificar esta versión:
Aviso: Este fichero es trabajo propio de su transcriptor y representa su interpretación personal de la canción. El material contenido en esta página es para exclusivo uso privado, por lo que se prohibe su reproducción o retransmisión, así como su uso para fines comerciales.