20 Rosas, Los Angeles Azules (acordes)

Autor: zeuscristo | 43374 visualizaciones

dofasosmmimmiresol


Intro con teclado transcrito a guitarra x2
Sol Mim Do Re

1]--10-------------10--12--14--12----12----------12--14--12------
2]-----8-----8--12-----------------------15--13------------------
3]---------------------------------------------------------------

1]--12--10--8--10------10---------
2]-----------------10-------------
3]--------------------------------

y luego lo del acordeon

Sol                            Mi 
1]---------------------------------------12----------12-----12--12---
2]----------12-----------12--|--------12-12-------12-12-----12--12---
3]-------11-12--------11-12--|-----12----------12--------------------
4]----12-----------12--------|--14----------14-----------------------
5]-14-----------14-----------|---------------------------------------

 Do                            Re                Sol 
1]-12-12-12-12-12-12--12/14-14-|-14--10---8--7--7-5-7----7-7----------
2]-13-13-13-13-13-13--13/15-15-|-15--12--10--8--8-7-8----8-8----------
3]-----------------------------|--------------------------------------
4]-----------------------------|--------------------------------------

 Do                          Re                  Sol 
1]-12-12-12-12-12-12--12/14-14---14-14-14--15-15--15-14-15------------
2]-13-13-13-13-13-13--13/15-15---15-15-15--15-15--15-15-15------------
3]--------------------------------------------------------------------

Sol                                1]-10--7-5-7--------
se que no significo nada en tu vida
 Mim                                     1]-12-10-7-8--5*-7*--
y que no estoy en tu corazon ni pensamiento,
     Do   Re           Sol            Do  Re              Sol 
pero estoy lleno de ilusiones, pero estoy lleno de ilusiones,

Sol    Do  Re               Sol 
Quiza, quiza no seas para mi 
      Do  Re                          Sol 
quiza quiza tus labios nunca vuelva a besar

Sol                   Do                 Re            Sol 
Mientras estes sola en todos los abriles te llevare 20 rosas
        Do             Re       Sol 
en tu cumpleaños te llevare 20 rosas
                                           Sol-Fa#m-Mim
 Do                    Re               2]--12--10--8-
a final y principio de año te llevare 20 rosas
  Do            Re                              Sol 
y pondre una alfombra de petalos de rosas a tus pies
     Do           Re                             Sol 
digna son de una hermosa y linda princesita como tu

Intermedio Sol Mim Do Re x4

1]----------------------------------|-8--8-8-7-8-10-12-10-12-10--
2]-12--12-12--10-12-11-12-10----12--|----------------------------
3]---------------------------12-----|----------------------------

Sol    Do  Re               Sol 
Quiza, quiza no seas para mi 
      Do  Re                          Sol 
quiza quiza tus labios nunca vuelva a besar

Sol                   Do                 Re            Sol 
Mientras estes sola en todos los abriles te llevare 20 rosas
        Do             Re       Sol 
en tu cumpleaños te llevare 20 rosas
                                           Sol-Fa#m-Mim
 Do                    Re              2]--12--10--8-
A final y principio de año te llevare 20 rosas

y termina con el intro  x2
Sol Mim Do Re

1]--10-------------10--12--14--12----12----------12--14--12---
2]-----8-----8--12-----------------------15--13------------------


1]--12--10--8--10------10-------
2]-----------------10-----------

            Sol 
1]----------------
2]----------12----
3]-------11-12----
4]----12----------
5]-14-------------





Calificar esta versión:
Aviso: Este fichero es trabajo propio de su transcriptor y representa su interpretación personal de la canción. El material contenido en esta página es para exclusivo uso privado, por lo que se prohibe su reproducción o retransmisión, así como su uso para fines comerciales.