Cuchi Cuchi, Los Amigos Invisibles (tablatura)

Autor: jonatan1233 | 36985 visualizaciones

e---------------------------------------------/
b--12-12-10-8-10--11-11-9-7-9---9-9-7-5-7-----/
g-9-------------8-------------6---------------/
d---------------------------------------------/
a---------------------------------------------/
E---------------------------------------------/


e-------------------11-12-11------------------------------/
b----------10-12-14---------12----------------------------/
g-10/11-13--------------------13-11------------9-11/13-13-/
d-------------------------------------9----9-11-----------/
a---------------------------------------11----------------/
E---------------------------------------------------------/


e------------------------------------------------------------/
b----------------------------------------12p10-10----10------/
g----16-16-14-12-14----15151515-13-11-13----------12----9-11-/
d-14----------------13---------------------------------------/
a------------------------------------------------------------/
E------------------------------------------------------------/
Calificar esta versión:
Aviso: Este fichero es trabajo propio de su transcriptor y representa su interpretación personal de la canción. El material contenido en esta página es para exclusivo uso privado, por lo que se prohibe su reproducción o retransmisión, así como su uso para fines comerciales.