Maria Teresa, Los 50 De Joselito (acordes)

Autor: smith619 | 31334 visualizaciones

csosdsosm
Acordes: D#v, C#     H: Hummer [Martillo]

e-11-11-11-11-11-14-11--6-6-------
B-11-11-11-11-11-------7----9-7-6-

e-6-6-6-6-6-10-6--4-4---------
B----------------6----7-6-4---

e-------------------------11----6-6------
B-12h11-11-11-12h11-11-11---11-7---9-7-6-

e-6-6-6-6-6-10-6-6s7-6-4-----------
B------------------------7-6-4-----

e--4-4------
B-6----7-6?

e---11-11-13-14--
B-11-------------
Estos punteos se dan al inicio de cada estrofa.


 D#m                             C#
Maria teresa tiene ganas de cumbanchar
                                      D#m
Cuando suena la orquesta empieza a revolear x2
                 C#                   D#m
Con el negrito Vicente que la sabe manejar
                 C#                      D#m
Con el compadre clemente ese si la hace sudar
                 C#                        D#m
Con el negrito Mendoza que es ciclón pa? guarachar
                      C#                     D#m
Con don Virgilio el pecoso que goloso pa? rumbear

e-11-11-11-11-11-14-11--6-6-------
B-11-11-11-11-11-------7----9-7-6-

e-6-6-6-6-6-10-6--4-4---------
B----------------6----7-6-4---

e-------------------------11----6-6-----4-4------
B-12h11-11-11-12h11-11-11---11-7---9-7-6----7-6--

e-6-6-6-6-6-10-6-6s7-6-4-----------
B------------------------7-6-4-----
D#m                              C#
Maria teresa baila merengue apambichao
                                      D#m
Tambien baila guaracha guandango y currulao x2
C#                   D#m
Con el negrito Vicente que la sabe manejar
                 C#                      D#m
Con el compadre clemente ese si la hace sudar
                 C#                        D#m
Con el negrito Mendoza que es ciclón pa? guarachar
                      C#                     D#m
Con don Virgilio el pecoso que goloso pa? rumbear

e-11-11-11-11-11-14-11--6-6-------
B-11-11-11-11-11-------7----9-7-6-

e-6-6-6-6-6-10-6--4-4---------
B----------------6----7-6-4---

e-------------------------11----6-6-----4-4------
B-12h11-11-11-12h11-11-11---11-7---9-7-6----7-6--

e-6-6-6-6-6-10-6-6s7-6-4-----------
B------------------------7-6-4-----
D#m                                      C#
Cuando suena el merengue el mambo y el danzon
                                      D#m
Maria se vuelve ausente en medio del salón x2
C#                   D#m
Con el negrito Vicente que la sabe manejar
                 C#                      D#m
Con el compadre clemente ese si la hace sudar
                 C#                        D#m
Con el negrito Mendoza que es ciclón pa? guarachar
                      C#                     D#m
Con don Virgilio el pecoso que goloso pa? rumbear
Calificar esta versión:
Aviso: Este fichero es trabajo propio de su transcriptor y representa su interpretación personal de la canción. El material contenido en esta página es para exclusivo uso privado, por lo que se prohibe su reproducción o retransmisión, así como su uso para fines comerciales.