El Pajaro Amarillo, Los 50 De Joselito (acordes)

Autor: smith619 | 44809 visualizaciones

RE-                           5 (Re)
E---10--10-10-10-10-10--------------------       
B--10--------------------10-11-10-8-9-----
G-10--------------------------------------
D-----------------------------------------
A-----------------------------------------
E-----------------------------------------

                                    (Re)-

E---12--12-12-12-12-12----12-13-10-12-10---
B--8---------------------------------------
G-9----------------------------------------
D------------------------------------------
A------------------------------------------
E------------------------------------------

REPETIR DE NUEVO DESDE EL PRINCIPIO
-------------------------------------------------------
RE-         SOL-
E-1--3--5----6---6---6---6---8---6--------
B-3--5--6---8---8---8---8---8---8---------
G-----------------------------------------
D-----------------------------------------
A-----------------------------------------
E-----------------------------------------
   (Re)-

E--5---5---5---5---6---5------------------
B-6---6---6---6---6---6-------------------
G-----------------------------------------
D-----------------------------------------
A-----------------------------------------
E-----------------------------------------

  5 (Re)                5 (Re)        
E--3---3---3---3---5---3---1--------------
B-5---5---5---5---5---5----3--------------
G-----------------------------------------
D-----------------------------------------
A-----------------------------------------
E-----------------------------------------
--------------------------------------------------------
REPITE DE NUEVO ASI:
 (Re)-        SOL-         
E-1--3--5----6---6---6---6---8---6--------
B-3--5--6---8---8---8---8---8---8---------
G-----------------------------------------
D-----------------------------------------
A-----------------------------------------
E-----------------------------------------
 
  (Re)-
E--5---5---5---5---6---5------------------
B-6---6---6---6---6---6-------------------
G-----------------------------------------
D-----------------------------------------
A-----------------------------------------
E-----------------------------------------

  5 (Re)                    (Re)-   
E--3---3---3---3---5---3---1-------10-----
B-5---5---5---5---5---5----3-----10-------
G------------------------------10---------
D-----------------------------------------
A-----------------------------------------
E-----------------------------------------


RE-                          5RE 
Por el juncal florido del riachuelo
                          (Re)-
viene volando un pajaro amarillo
RE-                          5RE
Por el juncal florido del riachuelo
                          (Re)- 
viene volando un pajaro amarillo



SOL-                 (Re)- 
lleva lleva en su piquito el primer besito
     5RE                           (Re)-
que diste , que se perdio en la llanura
SOL-                 (Re)-   
lleva lleva en su piquito el primer besito
    5RE                            (Re)-
que diste , que se perdio en la llanura


CORO:
RE-                     5RE                             (Re)-
Paso volando y no ha cantao , por que lleva  el pico apretao
RE-          5RE                     (Re)-
pajarito resabio , suelte ese beso robao
RE-                     5RE                             (Re)-
Paso volando y no ha cantao , por que lleva  el pico apretao
RE-          5RE                     (Re)- 
pajarito resabio , suelte ese beso robao

-----------------------INTRO---------------------------------
RE-                          5RE 
Por el juncal florido del riachuelo
                          (Re)-
viene volando un pajaro amarillo
RE-                          5RE
Por el juncal florido del riachuelo
                          (Re)- 
viene volando un pajaro amarillo



SOL-                 (Re)- 
lleva lleva en su piquito el primer besito
     5RE                           (Re)-
que diste , que se perdio en la llanura
SOL-                 (Re)-   
lleva lleva en su piquito el primer besito
    5RE                            (Re)-
que diste , que se perdio en la llanura


CORO:
RE-                     5RE                             (Re)-
Paso volando y no ha cantao , por que lleva  el pico apretao
RE-          5RE                     (Re)-
pajarito resabio , suelte ese beso robao
RE-                     5RE                             (Re)-
Paso volando y no ha cantao , por que lleva  el pico apretao
RE-          5RE                     (Re)- 
pajarito resabio , suelte ese beso robao


-----------------------------------------------------------------
PUNTEO DE LA MITAS , ESTE ES EL SOLO :

E-17-17---17---17-17---17-17---17-17----17 X 3
B-----------------------------------------
G-----------------------------------------
D-----------------------------------------
A-----------------------------------------
E-----------------------------------------



E-1--3--5----6---6---6---6---8---6--------
B-3--5--6---8---8---8---8---8---8---------
G-----------------------------------------
D-----------------------------------------
A-----------------------------------------
E-----------------------------------------


E--5---5---5---5---6---5------------------
B-6---6---6---6---6---6-------------------
G-----------------------------------------
D-----------------------------------------
A-----------------------------------------
E-----------------------------------------


E--3---3---3---3---5---3---1--------------
B-5---5---5---5---5---5----3--------------
G-----------------------------------------
D-----------------------------------------
A-----------------------------------------
E-----------------------------------------



CORO:
RE-                     5RE                             (Re)-
Paso volando y no ha cantao , por que lleva  el pico apretao
RE-          5RE                     (Re)-
pajarito resabio , suelte ese beso robao
RE-                     5RE                             (Re)-
Paso volando y no ha cantao , por que lleva  el pico apretao
RE-          5RE                     (Re)- 
pajarito resabio , suelte ese beso robao


el fin es un rasgueo es              (Re)-..................RE- (Re)- (Re)-
                                     TAN                  TA  TA  TAN
Calificar esta versión:
Aviso: Este fichero es trabajo propio de su transcriptor y representa su interpretación personal de la canción. El material contenido en esta página es para exclusivo uso privado, por lo que se prohibe su reproducción o retransmisión, así como su uso para fines comerciales.