Chido, Liquits (bajo)

Autor: rene rivera rodriguez | 22872 visualizaciones



INTRO

G -----------------------------------------------------------------
D -----------------------------------------------------------------
A -------3-3-3-3-3-3-3-3-3-3--------------------------------------
E ----------------------------------------------------------------

G -----------------------------------------------------------------------------
D -----------------------------------------------------------------------------    x 2
A -------3--3-3-3-3---------3--3-3-3---------3--3-3-3-3---------3--3-3-3-----
E ----------------------1-3----------3----------------------1-3----------3---



VERSO

G -----------------------------------------------------------------
D -----------------------------------------------------------------
A -------3---------3--3--3--------------3-3-3------------3-3-3-------
E ---1-3---------3---------3-----1----3-------3----1---3-------3------
   cHIDO wEY

G -------------------------------------------------------------------
D --------------------------------------------------------------------
A -------3-3-3-------------3-3-3------------3-3-3-------------3-3-3------
E -1---3-------3-----1---3-------3----1---3-------3-----1---3-------3-----
                                           CHIDO EL REY


G ----------------3-----4---------------------------------------
D -----------------------------------------------------------------
A -------------1-----2--------------3-3-3------------3-3-3-------
E ---1--1--------------------1----3-------3----1---3-------3------
                           CHICA PUNK

G -----------------------------------------------------------------
D -----------------------------------------------------------------
A -------3-3-3-------------3-3-3------------3-3-3-------------3-3-3------
E -1---3-------3-----1---3-------3----1---3-------3-----1---3-------3-----





G -----------------------------------------------------------------
D -----------------------------------------------------------------
A -----------------------------------------------------------------
E ---1-1-1-1-1-1-1-1-1-1-1-1----------------------------------------
 YEHHHH YEHHH YEEHHH





VERSO

G ------------------
D -------------------    x 7
A -------3-3-3------
E -1---3-------3-----
   CHIDO FAN         AMSTERDAM


G ----------------3-----4---------------------------------------
D -----------------------------------------------------------------
A -------------1-----2--------------3-3-3------------3-3-3-------
E ---1--1--------------------1----3-------3----1---3-------3------
                         LOS BIG BOYS

G -----------------------------------------------------------------
D -----------------------------------------------------------------
A -------3-3-3-------------3-3-3------------3-3-3-------------3-3-3------
E -1---3-------3-----1---3-------3----1---3-------3-----1---3-------3-----




CORO

G -----------------------------------------------------------------
D ----------------------------1-1-1-1-1-1-1---3-3-3-3-3-3-3---------
A -----------------------------------------------------------------
E ---1-1-1-1-1-1-1-1-1-1-1-1----------------------------------------
    YEHHH YEHHHH YEEEEEEEHHHHHH

G -----------------------------------------------------------------
D -----------------------------------------------------------------
A -----------------------------------------------------------------
E ---3-3-3-3-3-3-3-3--1-1-1-1-1-1-1-1-------------------------
       AMANECE CHIDO ONE



INTRO
VERSO
CORO



G --------------------------------------------------------------------
D --------------------------------------------------------------------
A ----3-3-3-3-3-3-3---6-6-6-6-6-6-6---8-8-8-8-8-8-8-8---9-9-9-9-9-9-9-
E -------------------------------------------------------------------
      sOLO DE GUITARRA



CORO

ENDING

G -----------------------------------------------------------------
D -----------------------------------------------------------------
A -1-1-1-1-1-1-1-1-1-1--------------------------------------------
E ---------------------------------------------------------

G -----------------------------------------------------------------
D -----------------------------------------------------------------
A -----------------------------------------------------------------
E ---3-3-3-3-3-3-3-3--1-1-1-1-1-1-1-1----------------------------
   PARA PA PARA PARAPA





Comentarios del colaborador: http://lacuerda.net/tabs/l/liquits/chido-2.shtml

Calificar esta versión:
Aviso: Este fichero es trabajo propio de su transcriptor y representa su interpretación personal de la canción. El material contenido en esta página es para exclusivo uso privado, por lo que se prohibe su reproducción o retransmisión, así como su uso para fines comerciales.