Es Por Ti, Lingo M (tablatura)

Autor: daniel291 | 38993 visualizaciones



----0---0------2--------------------
---0---0-0-2--2---------------------
--2---2---2--2----------------------
------------------------------------
-0---0------2-----------------------
------------------------------------


----2------2---2--------------------
---2-2-2--3---3-3-3-----------------
--2---2--1---1---1------------------
------------------------------------
--------2---2-----------------------
-2----------------------------------


----0-----0-------------------------
---3-3---3-3-3----------------------
--2---2-2---2-----------------------
-0----------------------------------
-------0----------------------------
------------------------------------





Calificar esta versión:
Aviso: Este fichero es trabajo propio de su transcriptor y representa su interpretación personal de la canción. El material contenido en esta página es para exclusivo uso privado, por lo que se prohibe su reproducción o retransmisión, así como su uso para fines comerciales.