Walking Away, Limp Bizkit (tablatura)

Autor: Limprock | 46147 visualizaciones

creo qe esta bn, al menos a mi me suena 

e|-----------------------------------------------------------------------------------------------|
 B|----------------------------------------------------------------------------------------------|
 G|-----4-4-2h4-4-2h4-4-------4-4-2h4-4-2h4-4--------4-4-2h4-4-2h4-4------------4-4-2h4--4-2h4-4-|
 D|----------------------------------------------2-2-----------------------2-2-------------------|   X2
 A|----------------------------------------------------------------------------------------------|
 E|-0-0-------------------0-0--------------------------------------------------------------------| 

y despues 


e|---------------------------------------------------------------------|
 B|-------------3-------------------------------------------------------|
 G|-----4-4-2-4---------------------------------------------------------|
 D|---------------------------------------------------------------------|
 A|-0-0-----------------------------------------------------------------|
 E|---------------------------------------------------------------------|

Coro: 


e|---------------------------------------------------------------------|
 B|---------------------------------------------------------------------|
 G|--------4-4-4-4-4-4---------7-7-7-7-7-7---------9-9-9-9-9-9----------|
 D|--------x-x-x-x-x-x---------x-x-x-x-x-x---------x-x-x-x-x-x----------|
 A|--------2-2-2-2-2-2---------5-5-5-5-5-5---------7-7-7-7-7-7----------|
 E|-0-0--0--------------3-3--3--------------5-5--5----------------------|


 e|---------------------|
 B|---------------------|
 D|--------x-----x------| 
 A|--------2--2--2------| 
 E|-0-0--0----0---------|
 
y el solo no lo eh sacado, espero q les guste
Calificar esta versión:
Aviso: Este fichero es trabajo propio de su transcriptor y representa su interpretación personal de la canción. El material contenido en esta página es para exclusivo uso privado, por lo que se prohibe su reproducción o retransmisión, así como su uso para fines comerciales.