Take A Look Around, Limp Bizkit (tablatura)

Autor: GoSlipknot | 44571 visualizaciones

INTRO 
|---14-14-14-14--------14-14-14-14-12-13-|cuando punteen la 
|--------------------12-14---------------|doce dejenla machuca
|----------------------------------------|da para q despues de 
|----------------------------------------|puntear la 14 suene
|----------------------------------------|como 3 veces (x8)
|----------------------------------------|

Verso
|----------------------------------------------|
|----------------------------------------------|
|----------------------------------------------|
|----------------------------------------------|
|-------4-------3-------2-------2-3333--4444---|
|--7-4---7--4---7--4---7--4--------------------|

pre coro

|-3-3-3-3-6-8-3-3-3-3-1-2|
|----------------------------------|
|----------------------------------|
|----------------------------------|  x2
|----------------------------------|
|----------------------------------|

coro 

|-3/4-3/4-3/4-3/4-6-8-3/4-3/4-3/4-3/4-1-2|
|----------------------------------------|
|----------------------------------------|
|----------------------------------------|  x2 con mas fuerza
|----------------------------------------|
|----------------------------------------|

|--3/4--3/4--3/4--3/4--6-8--3/4--3/4--3/4--3/4--1-2-|
|--3/4--3/4--3/4--3/4--6-8--3/4--3/4--3/4--3/4--1-2-|
|--3/4--3/4--3/4--3/4--6-8--3/4--3/4--3/4--3/4--1-2-|
|---------------------------------------------------| x2
|---------------------------------------------------|
|---------------------------------------------------|

Intro x2

verso 
|----------------------------------------------|
|----------------------------------------------|
|----------------------------------------------|
|----------------------------------------------|  x4
|-------4-------3-------2-------2-3333--4444---|
|--7-4---7--4---7--4---7--4--------------------|

|-3-3-3-3-6-8-3-3-3-3-1-2|
|----------------------------------|
|----------------------------------|
|----------------------------------|  x2
|----------------------------------|
|----------------------------------|

|-3/4-3/4-3/4-3/4-6-8-3/4-3/4-3/4-3/4-1-2|
|----------------------------------------|
|----------------------------------------|
|----------------------------------------|  x2 con mas fuerza
|----------------------------------------|
|----------------------------------------|

|--3/4--3/4--3/4--3/4--6-8--3/4--3/4--3/4--3/4--1-2-|
|--3/4--3/4--3/4--3/4--6-8--3/4--3/4--3/4--3/4--1-2-|
|--3/4--3/4--3/4--3/4--6-8--3/4--3/4--3/4--3/4--1-2-|
|---------------------------------------------------| x2
|---------------------------------------------------|
|---------------------------------------------------|

|-3h-3h-6h-8h-3h-1h-2h-3h-3h-6h-8h-1h-2h--|
|-3h-3h-6h-8h-3h-1h-2h-3h-3h-6h-8h-1h-2h--|
|-3h-3h-6h-8h-3h-1h-2h-3h-3h-6h-8h-1h-2h--|
|-----------------------------------------|
|-----------------------------------------|
|-----------------------------------------|

shhhhhhhhhhhhh!

entra bajo

now i know why
|---14-14---------14-14-12-13--| 
|-----------12-14--------------|
|------------------------------| x4
|------------------------------| 
|------------------------------|
|------------------------------|

|-3-3-6-8-3-3-1-2-3-3-6-8-1-2-3-3-6-8-3-3-1-2-3-3-6-8-3-|
|-------------------------------------------------------|
|-------------------------------------------------------|
|-------------------------------------------------------|  
|-------------------------------------------------------|
|-------------------------------------------------------|

|-3/4-3/4-3/4-3/4-6-8-3/4-3/4-3/4-3/4-1-2|
|----------------------------------------|
|----------------------------------------|
|----------------------------------------|  x2 con mas fuerza
|----------------------------------------|
|----------------------------------------|

|--3/4--3/4--3/4--3/4--6-8--3/4--3/4--3/4--3/4--1-2-|
|--3/4--3/4--3/4--3/4--6-8--3/4--3/4--3/4--3/4--1-2-|
|--3/4--3/4--3/4--3/4--6-8--3/4--3/4--3/4--3/4--1-2-|
|---------------------------------------------------| x2
|---------------------------------------------------|
|---------------------------------------------------|

|--------------------------------------------------------|
|--------------------------------------------------------|
|--------------------------------------------------------|
|--------------------------------------------------------|  x4
|------4----3---2---2-3-3-3-3--4-4-4-4-------------------|
|--7-4---7-4-7-4-7-4-------------------------------------|
Calificar esta versión:
Aviso: Este fichero es trabajo propio de su transcriptor y representa su interpretación personal de la canción. El material contenido en esta página es para exclusivo uso privado, por lo que se prohibe su reproducción o retransmisión, así como su uso para fines comerciales.