Eat You Alive, Limp Bizkit (tablatura)

Autor: MorKu | 31967 visualizaciones

Intro
|------------------------------------------------------------|
|------------------------------------------------------------|
|------------------------------------------------------------|
|--0-2-2-2-3-0-3--0-2-2-2-3-0-3--0-2-2-2-3-0-3--0-2-2-2-3----|
|--0-2-2-2-3-0-3--0-2-2-2-3-0-3--0-2-2-2-3-0-3--0-2-2-2-3----|
|--0-2-2-2-3-0-3--0-2-2-2-3-0-3--0-2-2-2-3-0-3--0-2-2-2-3----|

chorus
heavy distortion
|------------------------------------------------------------|
|------------------------------------------------------------|
|------------------------------------------------------------|
|--0-2-2-2-3-0-3--0-2-2-2-3-0-3--0-2-2-2-3-0-3--0-2-2-2-3----|
|--0-2-2-2-3-0-3--0-2-2-2-3-0-3--0-2-2-2-3-0-3--0-2-2-2-3----|
|--0-2-2-2-3-0-3--0-2-2-2-3-0-3--0-2-2-2-3-0-3--0-2-2-2-3----|

verse
|------------------------------------------------------------|
|------------------------------------------------------------|
|------------------------------------------------------------|
|------------------------------------------------------------|
|--0-4-4-4-5-0-5---4-4-4-5---------4-4-4-5-0-5-0-4-4-4-5-----|
|--0-2-2-2-3-0-3-0-2-2-2-3-------0-2-2-2-3-0-3-0-2-2-2-3-----|

verse with
Hey you
Miss I don't know what the f*ck you name is
I'm drawn to you,something's magnetic here
if I could aproach you
or even get close to the scent that you left behind
I'd be fine

pre chorus
|------------------------------------------------------------|
|------------------------------------------------------------|
|------------------------------------------------------------|
|------------------------------------------------------------|
|--0-4-4-4-5-0-5---4-4-4-5---------4-4-4-5-0-5-0-4-4-4-5-----|
|--0-2-2-2-3-0-3-0-2-2-2-3-------0-2-2-2-3-0-3-0-2-2-2-3-----|

pre chorus with
No doubt that(no doubt)
You bring out(bring out)the animal inside

chorus
|------------------------------------------------------------|
|------------------------------------------------------------|
|------------------------------------------------------------|
|--0-2-2-2-3-0-3--0-2-2-2-3-0-3--0-2-2-2-3-0-3--0-2-2-2-3----|x2
|--0-2-2-2-3-0-3--0-2-2-2-3-0-3--0-2-2-2-3-0-3--0-2-2-2-3----|
|--0-2-2-2-3-0-3--0-2-2-2-3-0-3--0-2-2-2-3-0-3--0-2-2-2-3----|

chorus with
I'd eat you alive
I'd eat you alive
I'd eat you alive
I'd eat you alive

verse with
Hey you
miss too good to look my way and that's cool
you want nothing at all to do with me
But I want you, ain't nothing wrong with wanting you
'Cause I'm a man and I can think what the hell I want
You got that straight!

pre chorus with
No doubt that (no doubt)
I'd love to (I'd love)
Sniff on them
Panties now!

chorus with
I'd eat you alive
I'd eat you alive
I'd eat you alive
I'd eat you alive

chorus 2
|-----------------------------------------------------------------------|
|-----------------------------------------------------------------------|
|-----------------------------------------------------------------------|
|--4-4-4-4-4-4-4-4-4-4-4-4-6-6-6-6-8-8-8-8------------------------------|
|--2-2-2-2-2-2-2-2-2-2-2-2-4-4-4-4-6-6-6-6-6-6-6-6-6-6-6-6-6-6-6-6------|
|------------------------------------------4-4-4-4-4-4-4-4-4-4-4-4------|

chorus 2
I'm sorry,so sorry(damn you're so hot)
Your beauty is so vain(damn you're so hot)
It drives me, Yes it drives me(damn you're so hot)
Absolutley insane

interlude
clean w/light delay
|----------------------------------------------------------------|
|--------13-------------13---------13-------------13-------------|
|-----12----12-------12---------12----12-------12----------------| x4
|--10---------------------------------------------------10-12----|
|-----------------13---------12-------------13-------------------|
|----------------------------------------------------------------|

interlude
phaser & distortion
|-----------------------------------------------------------------------|
|--------13-----------------13--------------13---------------13---------|
|-----12----------------12---------------12----------------12-----------|
|--10-------10-10h12-10---------10-12-10-------10-10h12-10------10-12---| x4
|-----------------------------------------------------------------------|
|-----------------------------------------------------------------------|

interlude
clean w/light delay with
I just wanna look at you,I just wanna look at you
I just wanna Look at you all day
There ain't nothing wrong,no
There ain't nothing wrong with that

interlude
phaser & distortion with
Once you seep in under my skin
there's nothing,there's nothing in this world
that could wash you away
Once you seep in under my skin
there's nothing,there's nothing in this world
that could wash you away

chorus 2
I'm sorry,so sorry(damn you're so hot)
Your beauty is so vain(damn you're so hot)
It drives me, Yes it drives me(damn you're so hot)
Absolutley insane

chorus with
I'd eat you alive
I'd eat you alive
I'd eat you alive
I'd eat you alive

Hey! see you later
Calificar esta versión:
Aviso: Este fichero es trabajo propio de su transcriptor y representa su interpretación personal de la canción. El material contenido en esta página es para exclusivo uso privado, por lo que se prohibe su reproducción o retransmisión, así como su uso para fines comerciales.