Because It's Midnite, Limozeen (tablatura)

Autor: DARKSIDE | 36936 visualizaciones



e|----------------------------|----------------10-13-10----|
B|------------------13--------|-13----------13-------------|
G|-12b14----12br--------------|----14-12-14----------------|
D|---------------15-----------|----------------------------|
A|----------------------------|----------------------------|
E|----------------------------|----------------------------|

e|-----10---------10-------13-|-13-15-17p15p13-15-17-20-22-|
B|-------------------13-10----|----------------------------|
G|----------------------------|----------------------------|
D|----------------------------|----------------------------|
A|----------------------------|----------------------------|
E|----------------------------|----------------------------|
       
e|----------------------------------------------------------|-----------------
B|----------------------------------------------------------|-----------------
G|----------------------------------------------------------|-----------------
D|-7-7-7-7-7-7-7-10-10-10-10-10-10-10-10-10-5-5-5-5-5-5-5-7-|-7-7-7-7-7-7-7-7-
A|-5-5-5-5-5-5-5-8--8--8--8--8--8--8--8--8--3-3-3-3-3-3-3-5-|-5-5-5-5-5-5-5-5-
E|----------------------------------------------------------|-----------------


e|----------------------------|--------------------------------------|
B|----------------------------|--------------------------------------|
G|-7----------------(b9)10-(b9)---|-7------------10-(b9)7----7-(b9)7-|
D|-------------------------10-|---------------------10---------------|
A|----------------------------|--------------------------------------|
E|----------------------------|--------------------------------------|

e|-------------------------------------------------|-------------------|
B|-------------------------------------------------|-------------------|
G|-------------------------------------------------|-------------------|
D|---------------------2---2---2-------------------|-------------------|
A|-3-5-5-3-5-5-5-3-3-3---3---3---3-3-5-5-3-5-5-5-5-|-5-5-5-5-5-5-5-5-5-|
E|-------------------------------------------------|-------------------|

e|----------------------------|--------------------------------------|
B|----------------------------|--------------------------------------|
G|-7----------------(b9)10-(b9)---|-7------------10-(b9)7----7-(b9)7-|
D|-------------------------10-|---------------------10---------------|
A|----------------------------|--------------------------------------|
E|----------------------------|--------------------------------------|






*Keyboard Solo*

e|---------------------------------------------------------------------------|
B|--15-10-15-10-15-10-15-10--15-10-6-15-10-6-15-10-6-15-10-6-15-10-6-15-10-6-|
G|---------------------------------------------------------------------------|
D|---------------------------------------------------------------------------|
A|---------------------------------------------------------------------------|
E|---------------------------------------------------------------------------|

e|---------------------------------------------------------------------------|
B|-17-13-6-17-13-6-17-13-6-17-13-6-17-13-6-17-13-6-18-15-10-18-15-10-18-15-10|
G|---------------------------------------------------------------------------|
D|---------------------------------------------------------------------------|
A|---------------------------------------------------------------------------|
E|---------------------------------------------------------------------------|

e|---------------------------------------------------------------------------|
B|-18-15-10-18-15-10-18-15-10--15--------------13-10-13-10-13-10-13-10-13-10-|
G|---------------------------------------------------------------------------|
D|---------------------------------------------------------------------------|
A|---------------------------------------------------------------------------|
E|---------------------------------------------------------------------------|

e|--15----10---15-16-15----10---15-16-15----10---15-16-15----10--15-16-15----|
B|---------------------------------------------------------------------------|
G|---------------------------------------------------------------------------|
D|---------------------------------------------------------------------------|
A|---------------------------------------------------------------------------|
E|---------------------------------------------------------------------------|

e|---13-10-8---10------------------------------------------------------------|
B|---------------------------------------------------------------------------|
G|---------------------------------------------------------------------------|
D|---------------------------------------------------------------------------|
A|---------------------------------------------------------------------------|
E|---------------------------------------------------------------------------|

e|---17----------17----------17----------17----------17----------17----------|
B|------15-13-15----15-13-15----15-13-15----15-13-15----15-13-15----15-13-15-|
G|---------------------------------------------------------------------------|
D|---------------------------------------------------------------------------|
A|---------------------------------------------------------------------------|
E|---------------------------------------------------------------------------|

e|--17----------------15----10---15-16-15----10---15-16-15----10---15-16-15--|
B|------15---13---15---------------------------------------------------------|
G|---------------------------------------------------------------------------|
D|---------------------------------------------------------------------------|
A|---------------------------------------------------------------------------|
E|---------------------------------------------------------------------------|

e|----10---15-16-15-------13-10-8---10---------------------------------------|
B|---------------------------------------------------------------------------|
G|---------------------------------------------------------------------------|
D|---------------------------------------------------------------------------|
A|---------------------------------------------------------------------------|
E|---------------------------------------------------------------------------|

e|---17-15-17-15-17-15-17-15-17-15-17-15-17-15-17-15-17-15-17-15-17-15-17-15-|
B|---------------------------------------------------------------------------|
G|---------------------------------------------------------------------------|
D|---------------------------------------------------------------------------|
A|---------------------------------------------------------------------------|
E|---------------------------------------------------------------------------|


e|---20-17-20-17-20-17-20-17-20-17-20-17-20-17-20-17-20-17-20-17---22--------|
B|---------------------------------------------------------------------------|
G|---------------------------------------------------------------------------|
D|---------------------------------------------------------------------------|
A|---------------------------------------------------------------------------|
E|---------------------------------------------------------------------------|

e|----------------------------|----------------------------------------|
B|----------------------------|----------------------------------------|
G|-7----------------(b9)10-(b9)---|-7------------10---(b9)10-(b9)---7--|
D|-------------------------10-|--------------------------10---------10-|
A|----------------------------|----------------------------------------|
E|----------------------------|----------------------------------------|

e|----------------------------|------------------------------|
B|----------------------------|------------------------------|
G|-12-12-12-12b14-12br-10~~~--|------------------------------|
D|----------------------------|------------------------------|
A|----------------------------|------------------------------|
E|----------------------------|------------------------------|

e|----------------------------|------------------------------|
B|----------------------------|------------------------------|
G|-7----------------(b9)10-(b9)---|-7------------10-(b9)7----7-(b9)7-|
D|-------------------------10-|---------------------10-------|
A|----------------------------|------------------------------|
E|----------------------------|------------------------------|

e|----------------------------|----------------10-13-10----|
B|------------------13--------|-13----------13-------------|
G|-12b14----12br--------------|----14-12-14----------------|
D|---------------15-----------|----------------------------|
A|----------------------------|----------------------------|
E|----------------------------|----------------------------|

e|-----10---------10-------13-|-13-15-17p15p13-15-17-20-22-|-10-10-10-10-|
B|-------------------13-10----|----------------------------|-------------|
G|----------------------------|----------------------------|-------------|
D|----------------------------|----------------------------|-------------|
A|----------------------------|----------------------------|-------------|
E|----------------------------|----------------------------|-------------|








Calificar esta versión:
Aviso: Este fichero es trabajo propio de su transcriptor y representa su interpretación personal de la canción. El material contenido en esta página es para exclusivo uso privado, por lo que se prohibe su reproducción o retransmisión, así como su uso para fines comerciales.