Because Its Midnight, Limozeen (tablatura)

Autor: guitarpro | 38892 visualizaciones



bueno, antes que nada quiero decir q es mi primera tablatura, asi q si esta mal mnden me un mail, porfavor.

  bueno, la canción se basa en tres acordes de 5 muteados q se repiten hasta el final de la canción:


|----------|   |----------|   |----------|
|----------|   |----------|   |----------|
|----------|   |----------|   |----------|
|---7------|   |---10-----|   |---5------|
|---7------|   |---10-----|   |---5------|
|---5------|   |---8------|   |---3------|


si nos fijamos en el segundo 42, hay un MUTEO para tocar con la guitarra:


E|------------------------------------------------------------- 
B|-------------------------------------------------------------
G|-------------------------------------------------------------
D|-------------------------------------------------------------
A|---3--5-5-3-5-5--3--3-7-3-7-3-7-3--3-5-5-3-5-5--5-5-5-5-5-5-
E|-------------------------------------------------------------

E|------------------------------------------------------------|
B|------------------------------------------------------------|
G|------------------------------------------------------------|
D|------------------------------------------------------------|
A|-5-5--------------------------------------------------------|
E|------------------------------------------------------------|

E|-------------------------------------------------------------|
B|-------------------------------------------------------------|
G|-------------------------------------------------------------|
D|-------------------------------------------------------------|
A|---3--5-5-3-5-5--3--3-7-3-7-3-7-3--3-5-5-3-5-5--3-5----------|
E|-------------------------------------------------------------|

 bueno, tal vez no sea igual a la cancion pero es lo q se...





Calificar esta versión:
Aviso: Este fichero es trabajo propio de su transcriptor y representa su interpretación personal de la canción. El material contenido en esta página es para exclusivo uso privado, por lo que se prohibe su reproducción o retransmisión, así como su uso para fines comerciales.