Sobreviviré, Lilly Goodman (tablatura)

Autor: Anónimo | 30439 visualizaciones

Arpegio Principal (Intro y casi toda la canción)
| G#m       | D#m       | C#m       | C#m     D#m     |
|-------4---------------------------------------------|
|-----4---4---------7-----------5-----------5-------7-|
|---4-------------8-----------6---6-------6-------8---|
|---------------8-----------6-----------6-------8-----|
|-------------6-----------4-----------4-------6-------|
|-4---------------------------------------------------|

(VERSO 1)
Imagina cuanto podría perder
SI decidiera retroceder
Si despues de haber luchado tanto
tiempo escogiera negar mi fe
Si en mi vida he sido testigo de
los milagros que El puede hacer
Y que aun en los malos tiempos El
siempre ha sido fiel

(CORO)
Sobreviviré, Sobreviviré,
No creas que desmayaré
No me rendiré, yo me aferraré
A la promesa de quel
Que me dijo ayer: Yo te guardaré
No temas que a tu lado iré
Y me dió la fe y me dió el poder
para confiar, para vencer

(VERSO 2)
Han venido tormentas fuertes
intentando mi confianza derribar
Pero ha sido en vano porque aquí
parada estoy en el mismo lugar
Como búfalo tengo la fuerza que
el Poderoso de Israel me da
Preparada con todas las armas
lista para la victoria alcanzar

(CORO)

Sobreviviré, porque El me da la fuerza
Sobreviviré, El es quien me sustenta
Sobreviviré, en medio de las pruebas
Sobreviviré, aquí estoy despierta
Sobreviviré
Sobreviviré, El rompe las cadenas
Sobreviviré, Sobreviviré
Sobreviviré

(PUENTE)

|| G#5             | C#m             ||
||-----------------|-----------------||
||-----------------|-----------------||
||-----------------|-----------------|| 3 veces y despues
||-6---6---6---6---|-----------------||
||---6---6---6---6-|-7---7---7---7---||
||-----------------|---9---9---9---9-||

| G#5             | C#m             |
|-----------------|-----------------|
|-----------------|-----------------|
|-----------------|-----------------|
|-6---6---6---6---|-----------------|
|---6---6---6---6-|-7---------------|
|-----------------|-----------------|

Puedo ser derribado mas
destruido no seré,
El que esta a mi lado es mucho
mas fuerte que aquel

(CORO)
(PUENTE) tocado con el Arpegio Principal
(INTRO)
Calificar esta versión:
Aviso: Este fichero es trabajo propio de su transcriptor y representa su interpretación personal de la canción. El material contenido en esta página es para exclusivo uso privado, por lo que se prohibe su reproducción o retransmisión, así como su uso para fines comerciales.