I Am Murloc, Level 70 Elite Tauren Chieftain (tablatura)

Autor: MaKi | 29047 visualizaciones



Lia un monton, yo solamente me saco el principio, me la encontre en la pagina http://www.911tabs.com/link/?5500422

Gtr I (E A D G B E) - 'Untitled'

  Q=150
 4/4
  Gtr I
  PM|                             PM|
  E E Q  E Q  E   Q  E Q  E E E   E E Q  E Q  E   Q  E Q  E E E
|---------------|---------------|---------------|----------------|
|---------------|---------------|---------------|----------------|
|---------------|---------------|---------------|----------------|
|-----2----0----|-3----2----0h2-|-----2----0----|-3----2----0h2--|
|---------------|---------------|---------------|----------------|
|-0-0----0----0-|----0----0-----|-3-3----3----3-|----3----3------|


  PM|                             PM|
  E E Q  E Q  E   Q  E Q  E E E   E E Q  E Q  E   Q  E Q  E  Q
|---------------|---------------|---------------|----------------|
|---------------|---------------|---------------|----------------|
|---------------|---------------|---------------|----------------|
|-----2----0----|-3----2----0h2-|-----2----0----|----------------|
|-0-0----0----0-|----0----0-----|---------------|-3----2---------|
|---------------|---------------|-0-0----0----0-|----0----0-[3]--|


  PM|   PM|   PM|     PM|   PM|       PM|   PM|   PM|     PM|   PM----|
  E E E E E E E E   E E E E E E E E   E E E E E E E E   E E E E E E E E
|-----------------|-----------------|-----------------|-----------------|
|-----------------|-----------------|-----------------|-----------------|
|-----------------|-----------------|-----------------|-----------------|
|-----2-----0-----|-3-----2-----0h2-|-----2-----0-----|-3-----2-----0h2-|
|-----------------|-----------------|-----------------|-----------------|
|-0-0---0-0---0-0-|---0-0---0-0-----|-3-3---3-3---3-3-|---3-3---3-3-----|


  PM|   PM|   PM|     PM|   PM|       PM|   PM|   PM|     PM|   PM|
  E E E E E E E E   E E E E E E E E   E E E E E E E E   E E E E E E  Q
|-----------------|-----------------|-----------------|------------------||
|-----------------|-----------------|-----------------|------------------||
|-----------------|-----------------|-----------------|------------------||
|-----2-----0-----|-3-----2-----0h2-|-----2-----0-----|------------------||
|-0-0---0-0---0-0-|---0-0---0-0-----|-----------------|-3-----2----------||
|-----------------|-----------------|-0-0---0-0---0-0-|---0-0---0-0-[3]--||


  PM|   PM|   PM|     PM|   PM|       PM|   PM|   PM|     PM|   PM----|
  E E E E E E E E   E E E E E E E E   E E E E E E E E   E E E E E E E E
|-----------------|-----------------|-----------------|-----------------|
|-----------------|-----------------|-----------------|-----------------|
|-----------------|-----------------|-----------------|-----------------|
|-----2-----0-----|-3-----2-----0h2-|-----2-----0-----|-3-----2-----0h2-|
|-----------------|-----------------|-----------------|-----------------|
|-0-0---0-0---0-0-|---0-0---0-0-----|-3-3---3-3---3-3-|---3-3---3-3-----|


  PM|   PM|   PM|     PM|   PM|       PM|   PM|   PM|     PM|   PM|
  E E E E E E E E   E E E E E E E E   E E E E E E E E   E E E E E E  Q
|-----------------|-----------------|-----------------|------------------|
|-----------------|-----------------|-----------------|------------------|
|-----------------|-----------------|-----------------|------------------|
|-----2-----0-----|-3-----2-----0h2-|-----2-----0-----|------------------|
|-0-0---0-0---0-0-|---0-0---0-0-----|-----------------|-3-----2----------|
|-----------------|-----------------|-0-0---0-0---0-0-|---0-0---0-0-[3]--|


  PM|   PM|   PM|     PM|   PM|       PM|   PM|   PM|     PM|   PM|
  E E E E E E E E   E E E E E E E E   E E E E E E E E   E E E E E E E E
|-----------------|-----------------|-----------------|-----------------|
|-----------------|-----------------|-----------------|-----------------|
|-----------------|-----------------|-----------------|-----------------|
|-----2-----0-----|-3-----2-----0h2-|-----2-----0-----|-3-----2-----0h2-|
|-----------------|-----------------|-----------------|-----------------|
|-0-0---0-0---0-0-|---0-0---0-0-----|-3-3---3-3---3-3-|---3-3---3-3-----|


  PM|   PM|   PM|     PM|   PM|       PM|   PM|   PM|
  E E E E E E E E   E E E E E E E E   E E E E E E E E
|-----------------|-----------------|-----------------|
|-----------------|-----------------|-----------------|
|-----------------|-----------------|-----------------|
|-----2-----0-----|-3-----2-----0h2-|-----2-----0-----|
|-0-0---0-0---0-0-|---0-0---0-0-----|-----------------|
|-----------------|-----------------|-0-0---0-0---0-0-|


    PM|   PM|
  E E E E E E  Q       +W       +W
|------------------||--------|--------|
|------------------||--------|--------|
|------------------||--------|--------|
|------------------||--------|--------|
|-3-----2----------||--------|--------|
|---0-0---0-0-[3]--||-([3])--|-([3])--|


  Q=90
          PM|                 PM|
  Q  Q  E S S Q    +E  E Q  E S S  Q
|----------------|---------------------|
|----------------|---------------------|
|----------------|---------------------|
|-2-----------2--|-(2)-2---------------|
|-2--5--7-5---2--|-(2)-2-5--7-5---[3]--|
|-0--3--5-3-0-0--|-(0)-0-3--5-3-0------|


          PM|
  Q  Q  E S S Q    +E  E Q  S S E S S E
|----------------|-----------------------|
|----------------|-----------------------|
|----------------|-----------------------|
|-2-----------2--|-(2)-2----3-3---3-3----|
|-2--5--7-5---2--|-(2)-2----3-3---3-3----|
|-0--3--5-3-0-0--|-(0)-0-3--1-1---1-1----|


          PM|                 PM|
  Q  Q  E S S Q    +E  E Q  E S S  Q
|----------------|---------------------|
|----------------|---------------------|
|----------------|---------------------|
|-2-----------2--|-(2)-2---------------|
|-2--5--7-5---2--|-(2)-2-5--7-5---[3]--|
|-0--3--5-3-0-0--|-(0)-0-3--5-3-0------|


          PM|
  Q  Q  E S S Q    +E  E Q  S S E S S E
|----------------|-----------------------|
|----------------|-----------------------|
|----------------|-----------------------|
|-2-----------2--|-(2)-2----3-3---3-3----|
|-2--5--7-5---2--|-(2)-2----3-3---3-3----|
|-0--3--5-3-0-0--|-(0)-0-3--1-1---1-1----|


  Q=150
  PM|                             PM|
  E E Q  E Q  E   Q  E Q  E E E   E E Q  E Q  E   Q  E Q  E E E
|---------------|---------------|---------------|---------------|
|---------------|---------------|---------------|---------------|
|---------------|---------------|---------------|---------------|
|-----2----0----|-3----2----0h2-|-----2----0----|-3----2----0h2-|
|---------------|---------------|---------------|---------------|
|-0-0----0----0-|----0----0-----|-3-3----3----3-|----3----3-----|


  PM|                             PM|
  E E Q  E Q  E   Q  E Q  E E E   E E Q  E Q  E   Q  E Q  E  Q
|---------------|---------------|---------------|----------------|
|---------------|---------------|---------------|----------------|
|---------------|---------------|---------------|----------------|
|-----2----0----|-3----2----0h2-|-----2----0----|----------------|
|-0-0----0----0-|----0----0-----|---------------|-3----2---------|
|---------------|---------------|-0-0----0----0-|----0----0-[3]--|


  PM|   PM|   PM|     PM|   PM|       PM|   PM|   PM|     PM|   PM|
  E E E E E E E E   E E E E E E E E   E E E E E E E E   E E E E E E E E
|-----------------|-----------------|-----------------|-----------------|
|-----------------|-----------------|-----------------|-----------------|
|-----------------|-----------------|-----------------|-----------------|
|-----2-----0-----|-3-----2-----0h2-|-----2-----0-----|-3-----2-----0h2-|
|-----------------|-----------------|-----------------|-----------------|
|-0-0---0-0---0-0-|---0-0---0-0-----|-3-3---3-3---3-3-|---3-3---3-3-----|


  PM|   PM|   PM|     PM|   PM|       PM|   PM|   PM|     PM|   PM|
  E E E E E E E E   E E E E E E E E   E E E E E E E E   E E E E E E  Q
|-----------------|-----------------|-----------------|------------------|
|-----------------|-----------------|-----------------|------------------|
|-----------------|-----------------|-----------------|------------------|
|-----2-----0-----|-3-----2-----0h2-|-----2-----0-----|------------------|
|-0-0---0-0---0-0-|---0-0---0-0-----|-----------------|-3-----2----------|
|-----------------|-----------------|-0-0---0-0---0-0-|---0-0---0-0-[3]--|


  PM|   PM|   PM|     PM|   PM|       PM|   PM|   PM|     PM|   PM|
  E E E E E E E E   E E E E E E E E   E E E E E E E E   E E E E E E E E
|-----------------|-----------------|-----------------|-----------------|
|-----------------|-----------------|-----------------|-----------------|
|-----------------|-----------------|-----------------|-----------------|
|-----2-----0-----|-3-----2-----0h2-|-----2-----0-----|-3-----2-----0h2-|
|-----------------|-----------------|-----------------|-----------------|
|-0-0---0-0---0-0-|---0-0---0-0-----|-3-3---3-3---3-3-|---3-3---3-3-----|


  PM|   PM|   PM|     PM|   PM|       PM|   PM|   PM|
  E E E E E E E E   E E E E E E E E   E E E E E E E E
|-----------------|-----------------|-----------------|
|-----------------|-----------------|-----------------|
|-----------------|-----------------|-----------------|
|-----2-----0-----|-3-----2-----0h2-|-----2-----0-----|
|-0-0---0-0---0-0-|---0-0---0-0-----|-----------------|
|-----------------|-----------------|-0-0---0-0---0-0-|


    PM|   PM|
  E E E E E E  Q       +W             +W
|------------------||--------------|----------||
|------------------||--------------|----------||
|------------------||--------------|----------||
|------------------||--------------|----------||
|-3-----2----------||--------------|----------||
|---0-0---0-0-[3]--||-([3])--------|-([3])----||


  Q=90
          PM|                 PM|
  Q  Q  E S S Q    +E  E Q  E S S  Q
|----------------|---------------------|
|----------------|---------------------|
|----------------|---------------------|
|-2-----------2--|-(2)-2---------------|
|-2--5--7-5---2--|-(2)-2-5--7-5---[3]--|
|-0--3--5-3-0-0--|-(0)-0-3--5-3-0------|


          PM|
  Q  Q  E S S Q    +E  E Q  S S E S S E
|----------------|-----------------------|
|----------------|-----------------------|
|----------------|-----------------------|
|-2-----------2--|-(2)-2----3-3---3-3----|
|-2--5--7-5---2--|-(2)-2----3-3---3-3----|
|-0--3--5-3-0-0--|-(0)-0-3--1-1---1-1----|


          PM|                 PM|
  Q  Q  E S S Q    +E  E Q  E S S  Q
|----------------|---------------------|
|----------------|---------------------|
|----------------|---------------------|
|-2-----------2--|-(2)-2---------------|
|-2--5--7-5---2--|-(2)-2-5--7-5---[3]--|
|-0--3--5-3-0-0--|-(0)-0-3--5-3-0------|


          PM|
  Q  Q  E S S Q    +E  E Q  S S E S S E
|----------------|-----------------------||
|----------------|-----------------------||
|----------------|-----------------------||
|-2-----------2--|-(2)-2----3-3---3-3----||
|-2--5--7-5---2--|-(2)-2----3-3---3-3----||
|-0--3--5-3-0-0--|-(0)-0-3--1-1---1-1----||


  S S E S S E S S E S S E     W
|-------------------------||-/5--------|
|-------------------------||-----------|
|-------------------------||-----------|
|-3-3---3-3---3-3---3-3---||-----------|
|-3-3---3-3---3-3---3-3---||-----------|
|-1-1---1-1---1-1---1-1---||-----------|


  E  E  E E E  Q   S S    S S  S S  S S S  S S S  S S S  S S S
|-5--6--6s8-8s10--10---|---------------------------------------|
|----------------------|-10-9-10-9-----------------------------|
|----------------------|-----------10-9-7-10-9-7---------------|
|----------------------|-------------------------10-7-6-10-7-6-|
|----------------------|---------------------------------------|
|----------------------|---------------------------------------|


  S S S S S S Q.  Q    Q  Q   Q  Q     E Q  E E E E S S
|--------------------|--------------|-------------------|
|--------------------|--------------|-------9-9-9-9-9-9-|
|--------------------|--------------|-10-9--------------|
|-6------------------|-9-----10-----|-------------------|
|---8-7-8-8-8-7---7--|----7------7--|-------------------|
|--------------------|--------------|-------------------|


   S  S  S  S  S  S  S  S  E  E  E  E
|-------------------------12-12-13-13---|
|-10-10-12-12-13-13-15-15---------------|
|---------------------------------------|
|---------------------------------------|
|---------------------------------------|
|---------------------------------------|


                                              3/4
   S  S  S  E  S  S  S  S  S  E  S  S  S  S     S  E  S  S  S  S  S  E  S  S
|-16p13p12-16p13p12-16p13p12-16p13p12-17p16p||=13-17p16p13-17p16p13-17p16p13-||
|-------------------------------------------||-------------------------------||
|-------------------------------------------||-------------------------------||
|-------------------------------------------||-------------------------------||
|-------------------------------------------||-------------------------------||
|-------------------------------------------||-------------------------------||


 4/4
  Q  E  H    +E    Q  E   H     +E    Q  E  H    +E
|----------------|------------------|----------------|
|----------------|------------------|----------------|
|----------------|------------------|----------------|
|----7--9----(9)-|----7--10----(10)-|----7--9----(9)-|
|-2--5--7----(7)-|-2--5---8-----(8)-|-2--5--7----(7)-|
|-0--------------|-0----------------|-0--------------|


  Q  Q  Q  Q    Q  E H    +E    Q  E  H     +E    Q  E H    +E
|-------------|---------------|-----------------|------------------|
|-------------|---------------|-----------------|------------------|
|-------------|---------------|-----------------|------------------|
|-9--7--5--4--|----7-9----(9)-|----7-10----(10)-|----7-9----(9)----|
|-7--5--3--2--|-2--5-7----(7)-|-2--5--8-----(8)-|-2--5-7----(7)----|
|-------------|-0-------------|-0---------------|-0----------------|


                                         Q=90
  Q  Q  Q  Q     W          +W           Q  Q  E S S Q
|-------------||----------|------------|-----------------||
|-------------||----------|------------|-----------------||
|-------------||----------|------------|-----------------||
|-9--7--5--4--||-3--------|-(3)--------|-2-----------2---||
|-7--5--3--2--||-3--------|-(3)--------|-2--5--7-5---2---||
|-------------||-1--------|-(1)--------|-0--3--5-3-0-0---||


             PM|                PM|
  +E  E Q  E S S  Q     Q  Q  E S S Q    +E  E Q  S S E S S E
|---------------------|----------------|----------------------|
|---------------------|----------------|----------------------|
|---------------------|----------------|----------------------|
|-(2)-2---------------|-2-----------2--|-(2)-2----3-3---3-3---|
|-(2)-2-5--7-5---[3]--|-2--5--7-5---2--|-(2)-2----3-3---3-3---|
|-(0)-0-3--5-3-0------|-0--3--5-3-0-0--|-(0)-0-3--1-1---1-1---|


          PM|                 PM|
  Q  Q  E S S Q    +E  E Q  E S S  Q
|----------------|---------------------|
|----------------|---------------------|
|----------------|---------------------|
|-2-----------2--|-(2)-2---------------|
|-2--5--7-5---2--|-(2)-2-5--7-5---[3]--|
|-0--3--5-3-0-0--|-(0)-0-3--5-3-0------|


          PM|
  Q  Q  E S S Q    +E  E Q  S S E S S E
|----------------|-----------------------|
|----------------|-----------------------|
|----------------|-----------------------|
|-2-----------2--|-(2)-2----3-3---3-3----|
|-2--5--7-5---2--|-(2)-2----3-3---3-3----|
|-0--3--5-3-0-0--|-(0)-0-3--1-1---1-1----|


  S S E S S H E      W
|-----------------||------*|
|-----------------||------*|
|-----------------||------*|
|-3-3---3-3-------||-2----*|
|-3-3---3-3-------||-2----*|
|-1-1---1-1-------||-0----*|





Comentarios del colaborador: la encontre en http://www.911tabs.com/link/?5500422

Calificar esta versión:
Aviso: Este fichero es trabajo propio de su transcriptor y representa su interpretación personal de la canción. El material contenido en esta página es para exclusivo uso privado, por lo que se prohibe su reproducción o retransmisión, así como su uso para fines comerciales.