Olvidarte Nunca, Leo Mattioli (tablatura)

Autor: Anónimo | 26523 visualizaciones



INTRO CON Dm
                        Dm
e------------0-1-1-1-1-1-1
B-------3-3---------------
G---2-2-------------------
D-------------------------
A-------------------------
E-------------------------


                        Bb
e------------0-1-1-1-1-1-1
B-------3-3---------------
G---2-2-------------------
D-------------------------
A-------------------------
E-------------------------

                        A
e-----------1-0-0-0-0-0-0-
B-------3-3---------------
G---3-3-------------------
D-------------------------
A-------------------------
E-------------------------

                       Dm
e-----1-1---0-------------
B--------------3-3-3-3-3-3
G-2-2---------------------
D-------------------------
A-------------------------
E-------------------------

                       Dm
e---5-5-3-3-1-1-0-0------
B-------------------2-2-3
G------------------------
D------------------------
A------------------------
E------------------------

(PRIMERA Y SEGUNDA ESTROFA)
              A                Dm
Pasaran los dias, pasaran los años,

              A                 Dm
nuevas ilusiones, otras despedidas,

     Gm               Dm
pero a ti, olvidarte nunca,

           Bb               A
si jure contigo, olvidarte nunca.


             A                 Dm
Nuevas primaveras, habran en mi vida,

            A                Dm
si tu me soñaras, ahi yo estaria,

     Gm               Dm
pero a ti, olvidarte nunca,

           Bb               A
si jure contigo, olvidarte nunca.


SE REPITE INTRO y sigue la parte recitada de la cancion.
            A                Dm
Y si alguna vez al pasar el tiempo
            A
en algun recodo de tusola vida
             Dm
tu te propusieras regresar conmigo
            Gm                Dm
tenlo por seguro que si me lo pides
          Bb            A
volvere atras hacia lo perdido.


SE VUELVE A REPETIR LA PRIMERA Y LA SEGUNDA ESTROFA
DE LA CANCION, Y SE TERMINA CON EL INTRO.

NOTA: LE DEDICO ESTA CANCION A UNA PERSONA MUY ESPECIAL A VANESSA
CUALQUIER DUDA O COMENTARIO MANDENMELA A MI CORREO [email protected]
saludos.





Calificar esta versión:
Aviso: Este fichero es trabajo propio de su transcriptor y representa su interpretación personal de la canción. El material contenido en esta página es para exclusivo uso privado, por lo que se prohibe su reproducción o retransmisión, así como su uso para fines comerciales.