Por Que, Leo Garcia (acordes)

Autor: Anónimo | 33058 visualizaciones

abmdem


 e|----------------------------------------------|       
B|----------------------------------------------|  
G|---------------------------------------------º| 
D|---4-------4-------4-------4-2-0-----------4-º|     
A|-2---0-1-2---0-1-2---0-1-2-------7-5-4-0-2----|    
E|----------------------------------------------|

Bm             A 
Por que ahora pedis tu amor de vuelta?
Em                                Bm
La hiedra esta loca en la casa de piedra.
Em                          Bm
Toca con lana, baja luz que sana y que suelta
D        Bm         A 
Por que ahora pedis tu amor de vuelta?


 Bm          A 
Por que ahora pedis tu amor de vuelta?
  Em                                  Bm
  Los  dias  no  pasan, las noches regresan:
e|-----------------------------------------------------------------------|       
B|-----------------------------------------------------------------------|  
G|-----------------------------------------------------------------------|       
D|-----------------------------------------------------------------------|  
A|-7-7-7-7-9-9-9-9-10-10-10-10-9-9-9-9--5-5-5-5-4-4-4-4--2-2-2-2-4-4-4-4-|       
E|-----------------------------------------------------------------------|  

  Em                                  Bm
  Calles  hacia  adentro en campana de nieve.
e|-----------------------------------------------------------------------|       
B|-----------------------------------------------------------------------|  
G|-----------------------------------------------------------------------|       
D|-----------------------------------------------------------------------|  
A|-7-7-7-7-9-9-9-9-10-10-10-10-9-9-9-9--5-5-5-5-4-4-4-4--2-2-2-2-4-4-4-4-|       
E|-----------------------------------------------------------------------|  

D        Bm         A 
Por que ahora pedis tu amor de vuelta?

e|----------------------------------------------|       
B|----------------------------------------------|  
G|---------------------------------------------º| 
D|---4-------4-------4-------4-2-0-----------4-º|     
A|-2---0-1-2---0-1-2---0-1-2-------7-5-4-0-2----|    
E|----------------------------------------------| 

Fuente original: LaCuerda
Colaborador original: loscar [los_car@atame.org]





Calificar esta versión:
Aviso: Este fichero es trabajo propio de su transcriptor y representa su interpretación personal de la canción. El material contenido en esta página es para exclusivo uso privado, por lo que se prohibe su reproducción o retransmisión, así como su uso para fines comerciales.