Ahora Se, Leo Garcia (tablatura)

Autor: gioxp | 15204 visualizaciones



Hola q tal, aquí les dejo esta canción q en lo personal me gusta mucho, va dedicada a rubí, “aun no te tengo y ya siento q te perdí”



Escuchen bien el intro x q el A q hay lo hace en un solo rasgueo.

Intro:           

E A x2

B|---10-9-9---7p5---| Esto lo hace antes d empezar la segunda
                      Vez del intro. 

Y luego hace esto.

   A          E       F#m    E
e|------------------------------------------------------|
B|------5-7/9-7-5-4-5/9---------------------------------|
G|--4h6-------------------------------------------------|
D|------------------------------------------------------|
A|------------------------------------------------------|
E|------------------------------------------------------|
   A        E      F#m           E
e|------------------------------------------------------|
B|----5-7/9-7-5-4-5-----9-10-10/12----------------------|
G|-4h6--------------------------------------------------|
D|------------------------------------------------------|
A|------------------------------------------------------|
E|------------------------------------------------------|
   
   A          E        F#m          E        A 
e|--------------------------7--------------------7-------|
B|------5-7/9-7-5-4-5---7/9---9/10-9-7-5-4-5-7/9---------|
G|--4h6--------------------------------------------------|
D|------------------------------------------------------|
A|------------------------------------------------------|
E|------------------------------------------------------|
    E                   A
e|--------12-14v16--12--14--12--------------------------|
B|--12/14-----------------------------------------------|



Voz:

A                     E 
Ahora se que cuando amas a alguien 
      F#m                      E
debes siempre estar incondicionalmente de su lado
A                    E                      F#m
ahora se que nunca debes decir cosas tan estupidas
           E 
no importa cual asustado.

A                    E
Ahora se de esos momentos importantes
       F#m                        E
En que debes ser más tierno más paciente y más tolerante
A                        E
Ahora entiendo que el amor es un carbón 
            E
Que con los años pudiera ser un diamante.


Precoro:

A      E         A 
Pero demasiado tarde lo se
A          E          F#
Llega el agua cuando se fue la sed.

Coro:
D    A      E
Vuelve a aquí
            D  A    E
Te juro que ya aprendí
          D   A  C             D      (A E F#m E x3)
De que me sirve  lo que descubrí, sin ti…

A E F#m

A                  E
Ahora se que no decir lo que sientes
      F#m                  E
No se llama dignidad si no cobardía
A                   E
Ahora se que la sutil diferencia 
        F#m                  E
Entre ganarte o perder puede ser solo un día

A                   E
Ahora se que las mañanas sin ti son como
F#m                E
Largos espacios de tiempo vacío
A                       E                      A
Y que aun los sentimientos más profundos mi amor
                      E   
No están exentos de morirse de frió


Precoro:

A      E        A 
Pero demasiado tarde lo se
A          E          F#
Llega el agua cuando se fue la sed.

Coro:
D    A      E
Vuelve a aquí
            D  A    E
Te juro que ya aprendí
          D   A  C             D      (A E A E x3)
De que me sirve  lo que descubrí, sin ti…

A E A E

D    A      E
Vuelve a aquí
            D  A    E
Te juro que ya aprendí
          D   A  C             D      (A E A E X4)
De que me sirve  lo que descubrí, sin ti…


DUDAS O COMENTARIOS A MI CORREO gio_007@live.com.mx , ES TODO BYE!!





Calificar esta versión:
Aviso: Este fichero es trabajo propio de su transcriptor y representa su interpretación personal de la canción. El material contenido en esta página es para exclusivo uso privado, por lo que se prohibe su reproducción o retransmisión, así como su uso para fines comerciales.