Heartbreaker (riff), Led Zeppelin (tablatura)

Autor: santiacdc | 27500 visualizaciones

este riff me lo paso mi profe de guitarra esta bueno
  
-----------------------------------------------------
-----------------------------------------------------
-----------------------------------------------------
-----------------------------------------------------
----------3--4--5------------------3---5--4--5-------
----3--5-----------3---5--5--5--5---------------3----


------------------------------------------------------------
------------------------------------------------------------
------------------------------------------------------------
------------------------------------------------------------
-----------9--10--11----------------------9--11--10--11----------
----9--11-------------9---11--11--11--11-----------------9--------


---------------------------------------------------------
---------------------------------------------------------
---------------------------------------------------------
---------------------------------------------------------
-----------7--8--9------------------7--9--8--9-----------
-----7--9-----------7---9--9--9--9--------------7---------



y vuelve a empezar, haganlo con pua(preferiblemente)
Calificar esta versión:
Aviso: Este fichero es trabajo propio de su transcriptor y representa su interpretación personal de la canción. El material contenido en esta página es para exclusivo uso privado, por lo que se prohibe su reproducción o retransmisión, así como su uso para fines comerciales.