Heartbreaker (intro), Led Zeppelin (tablatura)

Autor: toomii14 | 40232 visualizaciones

1)------------------------------------------------
2)------------------------------------------------
3)------------------------------------------------
4)------------------------------------------------ 
5)--------3--5--6--7----------------3--5--6--7----
6)--3/--5------------3/--5--5--5--5------------3/-  

/: Estirar para abajo

Se repite 3 veces.

Dpues sigue asi..

1)-----------------------------------------------
2)-----------------------------------------------
3)-----------------------------------------------
4)-----------------------------------------------
5)---5--7--8--9----------------5--7--8--9--------
6)-7/-----------5/--7--7--7--7------------7/--5/-

Y luego se repite lo mismo!

Termine, Dejen comentarios y opiniones sobre qe les parecio el tema!

Saludos!
Calificar esta versión:
Aviso: Este fichero es trabajo propio de su transcriptor y representa su interpretación personal de la canción. El material contenido en esta página es para exclusivo uso privado, por lo que se prohibe su reproducción o retransmisión, así como su uso para fines comerciales.