Muchachita, Laureano Brizuela (tablatura)

Autor: Merlineo | 26991 visualizaciones

Esta en el tono del album.

   E7
E ---------------------------------------------|
B ---------------------------------------------|
G ---------------------------------------------|
D ---------0-------------0------------0-4-2-0--|
A -------2-------------2------------2----------|
E -0-0-4---------0-0-4--------0-0-4------------|
                              | 4  v e c e s |
       A            F#m
Muchachita, no te mientas más
       A           F#m
muchachita, tan distante estoy
       D                E7
muchachita, yo soy un sueño nada más

lejos de tu realidad . . .

   E7
E ------------------|
B ------------------|
G ------------------|
D ---------0-4-2-0--|
A -------2----------|
E -0-0-4------------|
  | 4  v e c e s |

      A                  F#m
Muchachita, estoy tan lejos de tí
      A           F#m
muchachita, olvidate de mí
      D            E7
muchachita, en tu mente siempre estoy

y dentro de tu corazón . . .

   E7
E ------------------|
B ------------------|
G ------------------|
D ---------0-4-2-0--|
A -------2----------|
E -0-0-4------------|
  | 4  v e c e s |

Dm            G7
Muchahita no sufras más
C                   Am
que mi amor no es para tu edad
Dm            G7       C    Am
muchachita, alejate de mi-i-i-i;
Dm              G7
muchachita prohibida estás
C                Am
muchachita, no puede ser
Dm             G7              C      A
muchachita, yo te amo a tí tambié-e-e-en
                F#m  D      E7
y aunque te quiera, renunciaré
               F#m D         E7
y tu con el tiempo me olvidarás . . .

   E7
E ------------------|
B ------------------|
G ------------------|
D ---------0-4-2-0--|
A -------2----------|
E -0-0-4------------|
  | 4  v e c e s |

       A            F#m
Muchachita, no te mientas más
       A           F#m
muchachita, tan distante estoy
       D                E7
muchachita, yo soy un sueño nada más
E7
lejos de tu realidad, en tu mente siempre estoy,
E7
y dentro de tu corazón . . .

FINALE

   E7
E ---------------------------------------------|
B ---------------------------------------------|
G ---------------------------------------------|
D ---------0-------------0------------0-4-2-0--|
A -------2-------------2------------2----------|
E -0-0-4---------0-0-4--------0-0-4------------|
                              | 10  v e c e s|
        A
Muchachita

Comentarios del colaborador: http//lacuerda.net

Calificar esta versión:
Aviso: Este fichero es trabajo propio de su transcriptor y representa su interpretación personal de la canción. El material contenido en esta página es para exclusivo uso privado, por lo que se prohibe su reproducción o retransmisión, así como su uso para fines comerciales.