El Espacio Exterior, Las Ultrasonicas (tablatura)

Autor: Anónimo | 27802 visualizaciones



Esta es mi version del espacio exterior. Espero que este bien.
Califiquenla.

Afinacion Standard

El intro de bajo
----------------
----------------
--555-33-5-3-0-3
----------------


-----------------------------------------------------------------------
-----------------------------------------------------------------------
-----------------------------------------------------------------------
------------------------------------00-33-55-33-0-0--------------------
--00-33-55-33-0-0----00-33-55-0-0---------------------00-33-55-33-0-0--
-----------------------------------------------------------------------

                                       'QUE ES LO QUE VIENEN A BUSCAR...'
----------------------------------------------------------------------
----------------------------------------------------------------------
-----------------------------------------------x4--77-55--x4--------x4
-------------555-33---------------------77-55------55-33------77-55---
-----555-33----------55-33-5-3-5-3------55-33-----------------55-33---
----------------------------------------------------------------------

EL SOLO SE LOS DEBO, PERO NO SE OYE MUY COMPLICADO. NODEBE TENER NINGUN PEDO.





Calificar esta versión:
Aviso: Este fichero es trabajo propio de su transcriptor y representa su interpretación personal de la canción. El material contenido en esta página es para exclusivo uso privado, por lo que se prohibe su reproducción o retransmisión, así como su uso para fines comerciales.