Desaparecido, Las Pelotas (acordes)

Autor: Anónimo | 27577 visualizaciones

ad-eeg-a


 intro Ex4

E               A 
desaparecido en accion
E                     A 
la gente llama no encuentra al hombre
E                     A                     E    E
no importara cuando lleges sino que estes bien

las cosas cambian sobre tu piel
nos protegimos mucho y seguro
la mecha ya esta encendida mantenete en pie

D/E           D/E
que es esto,
G/A                    A 
que esta pasando aqui                   est.
D/E                      D/E
la gente esta refugiandose
G/A
no encuentra mas lugar
            A        D/E D/E G/A A 
para esconderse

Ex4

pudiste ser seleccionado
pudiste abrir la carta magna
ahora cerras las ventanas
te tiembla la nues

viste el rio esta en llamas
todas las calles estan bloqueadas
y ahora que estas solo
ponete a correr

que es esto,
que esta pasando aqui                    est.
la gente esta refugiandose
no encuentra mas lugar
para esconderse
   |    |    |    |    |    |    |    |
|----------------------------------------|
|----------------------------------------|
|----------------------------------------| x 4
|----------------------------------------|
|-----------------5-------4------5----7--|
|--6-------5-----------------------------|

Ex4

que es esto,
que esta pasando aqui                    est.
la gente esta refugiandose
no encuentra mas lugar
para esconderse

que es esto,
que esta pasando aqui                    est.
la gente esta refugiandose
no encuentra mas lugar
para esconderse

   |    |    |    |    |    |    |    |
|----------------------------------------|
|----------------------------------------|
|----------------------------------------| x 4
|----------------------------------------|
|-----------------5-------4------5----7--|
|--6-------5-----------------------------| 

Fuente original: LaCuerda
Colaborador original: capretti, armando [tanofachamartel@hotmail]





Calificar esta versión:
Aviso: Este fichero es trabajo propio de su transcriptor y representa su interpretación personal de la canción. El material contenido en esta página es para exclusivo uso privado, por lo que se prohibe su reproducción o retransmisión, así como su uso para fines comerciales.