Blurry Eyes, Larc En Ciel (acordes)

Autor: Dark Link Uchiha | 47289 visualizaciones

aambbbmbm-add-ad-bd-fsosd-geemgg-fsos


 Intro: D

E|---5------5---------5---------10--------10-------9----12-
B|------5-----5-3---3---3-----------10--------10--10-10-10-
G|-7------6-------4--------4s12--------11-------------9----
D|---------------------------------------------------------
A|---------------------------------------------------------
E|---------------------------------------------------------

E|-10-10-10-10--9---5-----5---------5--------10-------
B|-10-10-10-10-10-----5-----5-3---3---3---------10----
G|----------------7-----6-------4-------4s12-------11-
D|----------------------------------------------------
A|----------------------------------------------------
E|----------------------------------------------------

E|-10-----9----12-10---9------------12-10--9-s-2-----||
B|----10-10-10-10-10--10--7-5----10-10-10-10-s-3-----||
G|-----------9----------------7---9------------2-----||
D|---------------------------------------------------||
A|---------------------------------------------------||
E|---------------------------------------------------||

D    A          Bm            G            A 
  Tooku no kaze o   Mi ni matou   Anata ni wa
        D            A          Bm
Todokanai   Kotoba narabete mitemo
                 G        A 
Mata shisen wa dokoka   Mado no mukou

[Em A]
Kawaranai   Yokan wa   Tsuzuite iru
 Em   E    A     Am D
Ano hibi sae   Kumotte...

Kago no naka no   Tori no youna   Utsurona me ni
Furete iru   Gogo no hizashi wa marude
Anata o soto e   Sasou hikari

Kawaranai   Yokan wa   Tsuzuite iru
Ano hibi sae   Kumotte shimau

  D      A    Bb    Bm      G         Em     A 
Meguri kuru toki ni   Yakusoku o ubaware   Sou
  D      A    Bb        Bm Bm/A G G/F# Em        A        D
Kono ryoute Sashi nobetemo                Kokoro wa hanarete

Solo: [Bm A] 2x G A Bm D G A Bm

[D/B D/A D/G D/F#]
[Why do you stare at the sky with your blurry eyes?]

  D      A    Bb    Bm      G         Em     A 
Meguri kuru toki ni   Yakusoku o ubaware   Sou
  D      A    Bb        Bm Bm/A G G/F# Em        A        D
Kono ryoute Sashi nobetemo                Kokoro wa hanarete
  D      A    Bb    Bm      G         Em     A 
Meguri kuru toki ni   Taisetsuna hito wa   Mou
  D    A    Bb        Bm Bm/A G G/F# Em       A       Bm
Furimuita Sono hitomi ni                Chiisana tameiki

[Bm A]
[Your blurry eyes]  ...your blurry eyes
[Your blurry eyes]  ...kokoro wa
[Your blurry eyes]  ...hanarete
                         [D/B D/A D/G D/F#]
[Your blurry eyes]  ...yuku.

========================================================
Na parte [D/B D/A D/G D/F#], é feita a seguinte
sequência:

   =D/B=  =D/A=  =D/G=  =D/F#=
e|-----2------2------2------2-
B|---3------3------3------3---
G|----------------------------
D|----------------------------
A|-2------0-------------------
E|---------------3------2-----





linkniwagcn@hotmail.com 





Calificar esta versión:
Aviso: Este fichero es trabajo propio de su transcriptor y representa su interpretación personal de la canción. El material contenido en esta página es para exclusivo uso privado, por lo que se prohibe su reproducción o retransmisión, así como su uso para fines comerciales.