Shallow, Lady Gaga (acordes)

Autor: acordesmar | 1924 visualizaciones

a9amam-gbmcd9d9-fsosem7g5
[Intro] Em7  D9/F#  G5
        C  G5  D9
        Em7  D9/F#  G5

[Punteo]

Parte 1 de 3

   Em7     D9/F#  G5  C 
E|--------------------------------0---------|
B|-----3-----3----3-------1-3-------3-------|
G|-------0---2----0-----0-----0-------------|
D|-----------0----0-------------------------|
A|--------------------3---------3-----------|
E|-0-0-----2-2----3-------------------------|

Parte 2 de 3

   G5   D9
E|--------0h2p0-----------------------------|
B|---3--3-------3---------------------------|
G|---0--2---------2-------------------------|
D|------0-----------------------------------|
A|------------------------------------------|
E|-3----------------------------------------|


Parte 3 de 3

   Em7     D9/F#  G5   
E|------------------------------------------|
B|-----3-----3----3-------------------------|
G|-------0---2----0-------------------------|
D|---2-------0----0-------------------------|
A|------------------------------------------|
E|-0-------2-2----3-------------------------|

[PrimeraParte]

Em7          D9/F#      G5
    Tell me something, girl
C                        G5     D9
  Are you happy in this modern world
Em7        D9/F#    G5
    Or do you need more
C
  Is there something else
        G5        D9
You’re searching for

Em7  D9/F#  G5
I’m fal____ling
C
  In all the good times
   G5     D9
I find myself longing
Em7  D9/F#  G5
    For   change
C                         G5     D9
  And in the bad times I fear myself

[ Em7  D9/F#  G5 ] [2x]

Em7          D9/F#      G5
    Tell me something, boy
C
  Aren’t you tired trying
    G5        D9
To fill that void
Em7        D9/F#    G5
    Or do you need more
C                           G5     D9
  Ain’t it hard keeping it so hardcore

Em7  D9/F#  G5
I’m fal____ling
C
  In all the good times
   G5     D9
I find myself longing
Em7  D9/F#  G5
    For   change
C                         G5     D9
  And in the bad times I fear myself

[Primera Parte – Punteo 1 - 4x]

Parte 1 de 2

   Em7     D9/F#  G5
E|------------------------------------------|
B|-----3-----3----3-------------------------|
G|-------0---2----0-------------------------|
D|---2-------0----0-------------------------|
A|------------------------------------------|
E|-0-------2-2----3-------------------------|

Parte 2 de 2

   C               G5   D9
E|--------------------------0h2p0-----------|
B|-----1-----1-------3--3---------2---------|
G|---0---0-----0-----0--2-2-----------------|
D|---------2-----2---0--0-------------------|
A|-3----------------------------------------|
E|-----------------3------------------------|

[Repite - Parte 1]
[Repite - Parte 2]
[Repite - Parte 1]
[Repite - Parte 2]
[Repete - Parte 1]

Parte 2 de 2 [Final]

   C               G5   D9
E|------------------------------------------|
B|-----1-----1-------3--3-------------------|
G|---0---0-----0-----0--2-2-----------------|
D|---------2-----2---0--0-------------------|
A|-3----------------------------------------|
E|-----------------3------------------------|


[Primera Parte – Punteo 2 - 2x]

   Em7     D9/F#  G5
E|------------------------------------------|
B|-----3-----3----3-------------------------|
G|-------0---2----0-------------------------|
D|---2-------0----0-------------------------|
A|------------------------------------------|
E|-0-------2-2----3-------------------------|

[Coro]

Am
I’m off the deep end
 D9/F#
Watch as I dive in
G5          D9        Em7
I’ll never meet the ground

  Am
Crash through the surface
  D9/F#
Where they can’t hurt us
       G5            D9     Em7
We’re far from the shallow now

Am                   D9/F#
   In the shallow, shallow
G5          D9         Em7
   In the sha, sha-la-la-la-llow
Am                   D9/F#
   In the shallow, shallow
       G5            D9     Em7
We’re far from the shallow now


[Coro]

Parte 1 de 2

   Am                 D9/F#
E|-----------0------------------0-----------|
B|-----1-------1----------3-------3---------|
G|-------2-------2----------2-------2-------|
D|---2-----2------------0-----0-------------|
A|-0----------------------------------------|
E|-------------3------2---------------------|

Parte 2 de 2

   G5      D9       Em7
E|-----------0----------------0-------------|
B|-----3-------3--------3-------3-----------|
G|-------0-------2--------0-------0---------|
D|---0-----0----------2-----2---------------|
A|------------------------------------------|
E|-3----------------0-----------------------|

Parte 2 de 2 [Final]

   Em7
E|-----------0------------------------------|
B|-----3-------3----------------------------|
G|-------0-------0--------------------------|
D|---2-----2--------------------------------|
A|------------------------------------------|
E|-0----------------------------------------|


[Puente] Bm  D9  A9  Em7
        Bm  D9  A9


[Coro]

Am
I’m off the deep end
 D9/F#
Watch as I dive in
G5          D9        Em7
I’ll never meet the ground

  Am
Crash through the surface
  D9/F#
Where they can’t hurt us
       G5            D9     Em7
We’re far from the shallow now

Am          Am/G      D9/F#
   In the shallow, shallow
G5          D9/F#      Em7
   In the sha, sha-la-la-la-llow
Am          Am/G      D9/F#
   In the shallow, shallow
       G5            D9/F#  Em7
We’re far from the shallow now
Calificar esta versión:
Aviso: Este fichero es trabajo propio de su transcriptor y representa su interpretación personal de la canción. El material contenido en esta página es para exclusivo uso privado, por lo que se prohibe su reproducción o retransmisión, así como su uso para fines comerciales.