Volvera, La Sucia Perra (acordes)

Autor: german_cjs_ | 36182 visualizaciones

cdoffagsol
Riff en "G" en el estribillo:

e||-------------------------
B||-------------------------
G||-------------------------
D||-------------------------
A||-----2--2-3-5--7-5-3-2-0-
E||--3----------------------

[RIFF 2]-[Este se usa al final, en los pasajes de Do a Sol]
e||-------------------------------------
B||-------------------------------------
G||-0-----------------------------------
D||---3-2-3-2-0-------------------------
A||-----------------2--2-3-5--7-5-3-2-0-
E||--------------3----------------------




INTRO:[2 VECES]

e||-------------------------------------------------------------
B||-------------------------------------------------------------
G||--------------------2---2---2--------------------------------
D||---2---2---2---0--3---3---3---3--0----2---2---3------5-5---5-
A||-3---3---3---3----------------------3---3---3---3-0--5-5---5-
E||-----------------------------------------------------3-3---3-


   C     
Caminare hasta el cielo 
      F               
hasta ya no verte mas
        C 
Y ese ruido profundo 
        G
va disminuyendo

C 
Y el que habla no calla
           F
y el que calla no hablara
        C
Y ese miedo, las cosquillas
       G[RIFF]
por actuar...


   C        F
Volvera, Volvera
          C
a ver el Sol 
       G[Riff]
en madrugada...

   C        F
Volvera, Volvera
          C
a ver el Sol 
       G[Riff]
en madrugada...  


[INTRO]

     C
Y gritare mas 
               F               
hasta que me puedas escuchar.
      C
Y esperare en las noches 
     G
tu señal  

C                    
Nada sirve en la vida
       F
si no vas a disfrutar
        C
Lo que vive en tus venas
          G[RIFF]
y en tu alma...


   C        F
Volvera, Volvera
          C
a ver el Sol 
       G[Riff]
en madrugada...

   C        F
Volvera, Volvera
          C
a ver el Sol 
       G[Riff]
en madrugada... 


Solo:

e||-------------------------------------------------------------
B||-------------------------------------------------------------
G||--12-10------12-10-------------------------------------------
D||--------10---------10---------10-12h14--12-10-------10-12h14-
A||------------------------10-12-----------------10-12----------
E||-------------------------------------------------------------


e||-------------------------------------------------------------
B||-------------------------------------------------------------
G||-----------12-10-9-12-10-9-12-10-9-12-10-9-9-10-12-9-10-12-9-
D||-12-10-12----------------------------------------------------
A||-------------------------------------------------------------
E||-------------------------------------------------------------

e||----------------------------------------8-10-8-10-8-10b------
B||-------------------------------------------------------------
G||-10-12-9-10-12-9-10-12-9-9-----------------------------------
D||---------------------------12-12-10-12-----------------------
A||-------------------------------------------------------------
E||-------------------------------------------------------------


*El solo varia un poco con la version nueva, esta es la vieja. Para hacer la nueva lo unico que hay que hacer es mandarle unos bend en algunos lugares...


Ahora empieza reggae, por lo que hay que hacer las notas con cejilla...


C-F-C-G[2 VECES]

Luego se acompaña con un punteo, pero sigue el reggae de fondo...


         Do              Fa           Do              Sol 
e||----12-----------|---13------|-------12----|-----------------
B||-------13--------|------13---|----------13-|-12h13h-12--13---G||-12--------12-13-|14---------|-11h12-------|-----------------
D||-----------------|-----------|-------------|-----------------
A||-----------------|-----------|-------------|-----------------
E||-----------------|-----------|-------------|-----------------



Este punteo va de fondo en la estrofa:      

e||--15--13-12-----13--15-13---------
B||-------------10-----------13------
G||----------------------------------
D||----------------------------------
A||----------------------------------
E||----------------------------------

 C                                 
Del cielo poder rescatarte
            F                       
y que el alcohol ya no quiera matarme
C
Voy a agarrar la vida 
       G        F    C - F
como pide mi corazon

C
Me aferrare a la vida
       F
y el dolor escapara
       C
y una mano siempre siempre 
       G[RIFF]
va a ayudar


 C        F
Volvera, Volvera
          C
a ver el Sol 
       G[Riff]
en madrugada...

   C        F
Volvera, Volvera
          C
a ver el Sol 
       G[Riff]
en madrugada...  



C-F-C[Riff 2]  x2

TERMINA EN Do
 
Calificar esta versión:
Aviso: Este fichero es trabajo propio de su transcriptor y representa su interpretación personal de la canción. El material contenido en esta página es para exclusivo uso privado, por lo que se prohibe su reproducción o retransmisión, así como su uso para fines comerciales.