Los Desaparecidos, La Sucia Perra (acordes)

Autor: german_cjs_ | 20692 visualizaciones

amcfg
 RIFF
e||----------------------1--
B||-1--1--1--1--0--------1--
G||----------------2--0--2--
D||----------------------3--
A||----------------------3--
E||----------------------1--




INTRO:  F-C-G-Am-G-Am Riff [2 Veces]



F
Ya no se que busco
           C     
no es la solucion
G                               Am-G-Am
Se lo llevaron de prepo en madrugada


F                                
Se pasan el hueso, 
          C
se zafan del sarten.
G                               Am-G-Am
Se tapan los huecos hasta por plata.

F                
Cruza la calle, 
           C            G
alguien te va a ayudaaaar
G                      Am-G-Am
Insistir es mejor que huir
F                              C         G
Muy sobrio y cortido por la frustracioooon
G                      Am-G-Am
Si alguien me va a ayudar...


Solo: 

*Nota: Cada separacion en la tablatura significa un cambio de tono...Hay lugares en los que quedan colgadas algunas separaciones de tonos....si no estann indicados ahi, estan indicados mas abajo...

         Am                 F                     C             
e||---------------|--------------------|--------------------|---
B||-1-1-1-1-0---0-|-1--1-0-----0-1-0-1-|-5--5-3-1-0-1-5-3-1-|1-0
G||-----------2---|--------2-2---------|--------------------|---
D||---------------|--------------------|--------------------|---
A||---------------|--------------------|--------------------|---
E||---------------|--------------------|--------------------|---
            G                   Am                    F
e||---------------------|----1h3-3-5--3h5-|12--12-10-8-7-8-10-8-
B||-1-5-3-1-1-0-1-3-1-0-|-----------------|---------------------
G||---------------------|-2---------------|---------------------
D||---------------------|-----------------|---------------------
A||---------------------|-----------------|---------------------
E||---------------------|-----------------|---------------------                       C                              G
e||-10-|12--13--15-13-12-12-13-12-10-12-|15--12-15-12-15-15--12-
B||----|--------------------------------|-----------------------
G||----|--------------------------------|-----------------------D||----|--------------------------------|-----------------------
A||----|--------------------------------|-----------------------
E||----|--------------------------------|-----------------------
                 Am
e||-15-17-|17h19-19-17-15-17----
B||-------|---------------------
G||-------|---------------------
D||-------|---------------------
A||-------|---------------------
E||-------|---------------------


F                              C         G
Muy sobrio y cortido por la frustracioooon
G                      Am-G-Am
Si alguien me va a ayudar...
F                              C         G
Muy sobrio y cortido por la frustracioooon
G                      Am
Si alguien me va a ayudar...
           
*Puse esa separacion[|]para indicar que ahi son acordes nomas

F-C-G-Am|G|Am|G|Am
F-C-G

G                      Am   F  C   G Riff Am
Si alguien me va a ayudaaaaaaaaaar...



German
 

Comentarios del colaborador: Re Do Re Re Do Vamos la perra a bailar....Vamos la perra a Re saltar!!! jajajaja...les deje los acordes de esto tambien..jaja.....

Calificar esta versión:
Aviso: Este fichero es trabajo propio de su transcriptor y representa su interpretación personal de la canción. El material contenido en esta página es para exclusivo uso privado, por lo que se prohibe su reproducción o retransmisión, así como su uso para fines comerciales.