Jodete, La Secreta (acordes)

Autor: maxi17 | 46156 visualizaciones

ademg


ACORDES:> Em G D A 

INTRO DEL COMIENZO
1:---------------------------------------0----
2:--0---0-----0----0------0---0--------0--0-0-
3:-0---0--0--0----0------0---0--------0-0--0--
4:2---1-----0---------------------------------
5:-------2-------4----------2-----------------
6:-------------------5s8---------3-2-0--------


1:---------------------------------------0----
2:--0---0-----0----0------0---0--------0--0-0-
3:-0---0--0--0----0------0---0--------0-0--0--
4:2---1-----0---------------------------------
5:-------2-------4----------2-----0-2---------
6:-------------------5s8---------3------------



Em                G
Jodete.. por pelotudo
           D                 A 
Se cae el mundo.. y vos ni ahi
Em                   G
Jodete..por hijo de puta
              D                A 
Pidieron tu ayuda.. y vos ni ahi


              Em                    G
Sos dueño de nada... del amor que emana
        D             A 
de tu mente... tu mente
              Em                   G
Sos parte del aire... pese a mi desaire
             D                      A 
Y tu indiferencia... tu poca inteligencia


1:---------------------------------------0----
2:--0---0-----0----0------0---0--------0--0-0-
3:-0---0--0--0----0------0---0--------0-0--0--
4:2---1-----0---------------------------------
5:-------2-------4----------2-----------------
6:-------------------5s8---------3-2-0--------


1:---------------------------------------0----
2:--0---0-----0----0------0---0--------0--0-0-
3:-0---0--0--0----0------0---0--------0-0--0--
4:2---1-----0---------------------------------
5:-------2-------4----------2-----0-2---------
6:-------------------5s8---------3------------


Em               G
Jodete... por careta
             D                            A 
Lo que mas detestas.. es lo que te hace bien
Em                      G
Jodete... por ser una mierda
           D                    A 
Cortas la yerba... y preferis cemento


              Em                    G
Sos dueño de nada... del amor que emana
        D             A 
de tu mente... tu mente
              Em                   G
Sos parte del aire... pese a mi desaire
             D                      A 
Y tu indiferencia... tu poca inteligencia

DESDE ACA MIKE LE APLICA UN DIVAGUE QUE TODAVIA NO SAQUE COMPLETO..


Este es uno de los mejores de La secreta, y para mi gusto es el que
mas resalta la guitarra.. Muy buen tema en serio





Calificar esta versión:
Aviso: Este fichero es trabajo propio de su transcriptor y representa su interpretación personal de la canción. El material contenido en esta página es para exclusivo uso privado, por lo que se prohibe su reproducción o retransmisión, así como su uso para fines comerciales.