Cariñito, La Sarita (tablatura)

Autor: pepolax | 45919 visualizaciones



Bajos

1|------------------------------------------
2|------------------------------------------
3|------------------------------------------
4|--5---5--3-5-8---8--8---8--8-10-8-5---5---
5|----5----------8------8-------------5-----

1|-----------------------------------------
2|-----------------------------------------
3|-----------------------------------------
4|-5---5--3-5-8--8--8--8--8-10-8-5---5-----
5|---5----------8-----8------------5-------

1|---------------------------------------------------
2|---------------------------------------------------
3|---------------------------------------------------
4|-10-12-10-8-88-88-10-12-10-8-88-88--10-12-10-8-88-88

1|-----------------------------------------------
2|-----------------------------------------------
3|-----------------------------------------------
4|-8-10-8-5-55-55--





Comentarios del colaborador: es mi primera cancion ojala les agrade

Calificar esta versión:
Aviso: Este fichero es trabajo propio de su transcriptor y representa su interpretación personal de la canción. El material contenido en esta página es para exclusivo uso privado, por lo que se prohibe su reproducción o retransmisión, así como su uso para fines comerciales.