Sed De Poder, La Pestilencia (tablatura)

Autor: David1998 | 29228 visualizaciones



Intro
|-----------------------------------------------------|
|-----------------------------------------------------| 
|-----------------------------------------------------|
|-----88-----88-----------------88-----88-------------|
|-0-8----0-6----0-4-3-4-3-1-0-8----0-6----0-4-3-4-3-1-|
|-----------------------------------------------------|

|-------------------------------------------------------|
|-------------------------------------------------------| 
|-------------------------------------------------------|
|------10------8-----6-5-6-5-3------10----8---6-5-6-10-3|
|---0--8----0--6--0--4-3-4-3-1---0-?8---0?6?0?4-3-4-8?1-|
|-------------------------------------------------------|

Bajo
|---------------------|
|---------------------| 
|---------------------|
|---------------------|
|--88888-66666-44444--|
|---------------------|

Verso
|------------------------------------|
|------------------------------------| x6
|------------------------------------|
|--6565-----1010101010-88888-55555---|
|--4343------8-8-8-8-8-66666-33333---|
|------------------------------------|


|------------------------------------------------------------|
|------------------------------------------------------------| 
|------------------------------------------------------------|
|-888-101010-888-101010-888-101010-888-10101010101010101010--|
|-666-8-8-8--666-8-8-8--666-8-8-8--666-8-8-8-8-8-8-8-8-8-8---|
|------------------------------------------------------------|


Orden de la cancion

Intro
Verso
Coro 
Verso 
Coro
Intro
Verso
Coro





Calificar esta versión:
Aviso: Este fichero es trabajo propio de su transcriptor y representa su interpretación personal de la canción. El material contenido en esta página es para exclusivo uso privado, por lo que se prohibe su reproducción o retransmisión, así como su uso para fines comerciales.