Olé, La Pestilencia (tablatura)

Autor: David1998 | 21215 visualizaciones



Cancion: Ole
Interprete: La Pestilencia
Album: La muerte un compromiso de todos
By: Sergio1998

Intro (acustico)
|--------------------------------0-5---0-0---0-0---0-5-5-0-0-------x-|
|--2-2-2-2-2-22--3-3-3-3-0-3-2?2-----2-----2-----2-----------2-2---x-|
|--2-2-2-2-2-22--3-3-3-3-0-3-2-----------------------------------2-x-|
|--2-2-2-2-2-22--3-3-3-3-0-3-2-------------------------------------x-|
|------------------------------------------------------------------x-|
|------------------------------------------------------------------x-|

Verso 1 00:14
|-------------------------------------------------|
|-------------------------------------------------| x6
|-------------------------------------------------|
|-------------------------------------------------|
|-------------------------------------------------|
|-----5-5555-5555-555-3-5-6-6666-6666-666-8-6-----|

Verso 2 00:47
|--------------------------------------------------------------------|
|--------------------------------------------------------------------| 
|--------------------------------------------------------------------|
|--------------------------------------------------------------------|
|--------------------------------------------------------------------|
|-/////5vvvv5/3-5-6/8-8-6-5b-----5/3-5-6/8 8-6 5b-----5/3-5-6/8-6-5b-|

Verso 3 01:28
|--------------------------------------------------------------------|
|--------------------------------------------------------------------|
|--------------------------------------------------------------------|
|--------------------------------------------------------------------|
|--------------------------------------------------------------------|
|-----5-xx5x5-5-3-5-6xx6x6/8-6-5b7xx5x5-5-3-5-6xx6x6/8-6-5b7---------|

Solo 02:36
|--------------------------------------|     |-----------------------|
|--------------------------------------| x2  |-----------------------|
|--0h2-0h2-0h2-0-2-2h3-2h3-2h3-3/5-3---|     |-----------------------| 
|--------------------------------------|     |--7~~~~~~~-------------|
|--------------------------------------|     |--7~~~~~~~-------------|
|--------------------------------------|     |--5~~~~~~~-------------|

Orden de la cancion

Intro
Verso 1 x6
Verso 2
Verso 3
Verso 1
Solo
Outro





Calificar esta versión:
Aviso: Este fichero es trabajo propio de su transcriptor y representa su interpretación personal de la canción. El material contenido en esta página es para exclusivo uso privado, por lo que se prohibe su reproducción o retransmisión, así como su uso para fines comerciales.