Muchachos, Esta Noche Me Emborracho, La Mosca Tse-tse (tablatura)

Autor: Anónimo | 21678 visualizaciones

EXCELENTE CANCION!!!!


INTRO GUITARRA:

RAPIDO:

1) B/--12-13-12--/
2) B/---9-10-8--/


LUEGO 

RAPIDO AL SON DE LOS VIENTOS!!!


1)

      Gm                                        Cm
e/--------------------------------------------------
B/--11-10-11--10-11-10-11----11-10-11-10-11-10-13---
G/--------------------------------------------------
D/--------------------------------------------------
A/--------------------------------------------------
E/--------------------------------------------------

2)
                       D                           Gm
e/------------------------------------11--10----------
B/--13-11-13-11-13-11-13-----10-11-13---------13--11--
G/----------------------------------------------------
D/----------------------------------------------------
A/----------------------------------------------------
E/----------------------------------------------------

ESTA PARTE TAMBIEN SE PUEDE HACER ASI:

                       D                              Gm 
e/-------------------------------------11--10---------------
B/--13-11-13-11-13-11-13-----13-13-13------------13----11---
G/----------------------------------------------------------
D/----------------------------------------------------------
A/----------------------------------------------------------
E/----------------------------------------------------------

3)
    Gm                                        Cm
e/--------------------------------------------------
B/--11-10-11-10-11-10-11----11-10-11-10-11-10-13----
G/--------------------------------------------------
D/--------------------------------------------------
A/--------------------------------------------------
E/--------------------------------------------------

4)
                        D                              Gm    
e/------------------------------------------------------------
B/--13-11-10-----10--11-----10----10-10-10--13-11-10----------
G/----------------------12----------------------------12---12-
D/------------------------------------------------------------
A/------------------------------------------------------------
E/------------------------------------------------------------




SALUDO COLOMBIANO!!!!

ARRIBA DEPORTIVO CALI!!!!

ARRIBA COLOMBIA!!!!



PAZZZZZZZ!!!!!!!!

JODANSE CORRUPTOS %$#& !
Calificar esta versión:
Aviso: Este fichero es trabajo propio de su transcriptor y representa su interpretación personal de la canción. El material contenido en esta página es para exclusivo uso privado, por lo que se prohibe su reproducción o retransmisión, así como su uso para fines comerciales.