Madrid Amanecio, La Mosca (acordes)

Autor: franck159 | 22676 visualizaciones

bmcdemg


 intro: G-Em-C-D [bis]

e-----------------------------------------|
b-----------------------------------------|
g-------------------3/4-4*5-4-2-0---------|
d-4*5-4-----2-0*4-2---------------0*2-0---|
a-------5---------------------------------|
E-----------------------------------------|



G                           Em
Hace mil semanas que no duermo en nuestra cama
        C                     D
y este hotel parece la desolación.
G                      Em
Una puñalada en el balcón,
 C                            D
morir de amor en esta habitación

G   D   Em         Bm
No, no, no, no mi amor.
        C                             D
Si se te rompe el corazón no he sido yo.

e------------------|
b------------------|
g------------------|
d------------------|
a-----2-5*7-2------|
E-3*5---------5-3--|

G                      Em
Madrid amaneció toda mojada,
                C                          D
escuché una carcajada desde la Puerta del Sol.
G                       Em
Fumo y me pregunto qué pasó,
          C                              D
no hay palabras que te expliquen cómo estoy.



D   C   G          Em
No, no, no, no mi amor,
          C                          D
si se te rompe el corazón no he sido yo.[bis]


solo:

e-7-8-10-8-7---7-8-10-8-7---8-10-12-10-8-----|
b------------8------------8--------------8---|
g--------------------------------------------|
d--------------------------------------------|
a--------------------------------------------|
E--------------------------------------------|

e-5*7-7-/-5-5---5-5*7-7-7---5-5*7-7-7---5-5*7|
b-------------8-----------8-----------8------|
g--------------------------------------------|
d--------------------------------------------|
a--------------------------------------------|
E--------------------------------------------|

e--7-7--5*7-5-|
b-------------|
g-------------|
d-------------|
a-------------|
E-------------|


G                        Em
Busco una canción desesperada
                        C                       D
que ha quedado bien guardada en el disco que pasó
G                         Em
Hago una llamada y vos no estás
          C                         D
y no hay nada que anestesie este dolor



D   C   G          Em
No, no, no, no mi amor,
          C                          D
si se te rompe el corazón no he sido yo.[bis]


G   D   Em         Bm
No, no, no, no mi amor.
        C                             D
Si se te rompe el corazón no he sido yo.


de qui en adelante se repiten los acordes hasta el final

G-Em-C-D
 





Calificar esta versión:
Aviso: Este fichero es trabajo propio de su transcriptor y representa su interpretación personal de la canción. El material contenido en esta página es para exclusivo uso privado, por lo que se prohibe su reproducción o retransmisión, así como su uso para fines comerciales.