Ella, La Mississippi Blues Band (acordes)

Autor: jul | 26322 visualizaciones

aa7bmdee7fsosggsos
Entrada: E [E][F#][G#]

A                 F# F#
Ella siempre está
        A                *1
dando vueltas por mi vida.
      A            F# F#
Una mujer especial
         A              *2
como un sol de mediodía.-

D
Sin decir palabras
ella siempre me convence.
         A           F# F#
Es una mujer especial
   A 
jugando con mi suerte

        Bm    G             A 
Tenemos un lugar que nadie puede encontrar.
      Bm           G  E
Somos peces en el mar      muy profundo
  E7
Y lejos de la redes…

A
Su juego sensual
me despierta cada día
Con el arte de amar,
con el fuego de la vida.

D
Construye mis sueños
y destruye mis rutinas,
Es una mujer especial
que cura mis heridas.

Tenemos un lugar que nadie puede encontrar
Somos peces en el mar muy profundo
Y lejos de la redes…

Firmamos la paz,
para guerra esta la vida
Cuando las nubes se van
ella brilla como el día.

Si no hay diferencias
no hay adrenalina
Es una mujer especial
un faro que me guía.-


Tenemos un lugar…
…para que nadie nos moleste

Solo sobre estrofa

Los soles se van
llevandose los días
Y ya la vida dirá
si nuestro amor termina.

Pero ella tiene tiempo
y yo tengo suerte
Es una mujer especial
y siempre diferente.-

Tenemos un lugar…


Bm G       A 
    Porque ella siempre está,
Bm G        A 
    Dando vueltas por mi vida,
Bm G          A 
    Es una mujer especial,
Bm G         A 
    Como un sol de mediodía…


Porque ella…
…como faro que me guía.

                       A7
Porque ella siempre está.-


*1:
                A 
E|-------------------------------------------
B|--------------2-----------------------------
G|--------------2-----------------------------
D|----0-2-0---0-2---------------------------------
A|--4-------4---0-------------------------------
E|-------------------------------------------

*2:
              D
E|------------2-------------------------------
B|------------3-------------------------------
G|------------2-------------------------------
D|----0-2-----0---------------------------------
A|--4-----3-4-----------------------------------
E|-------------------------------------------




Para Lau...

 
Calificar esta versión:
Aviso: Este fichero es trabajo propio de su transcriptor y representa su interpretación personal de la canción. El material contenido en esta página es para exclusivo uso privado, por lo que se prohibe su reproducción o retransmisión, así como su uso para fines comerciales.