Ese Trén, La Mancha De Rolando (tablatura)

Autor: Anónimo | 45101 visualizaciones

SOLO:

E|------------------7h9------------------------7h9-12-12-9-10-9/7--------
B|-7-10-7-10-7-10-10---10-10----/7-10-7-10-7-10--------------------------
G|-----------------------------------------------------------------------
D|-----------------------------------------------------------------------
A|-----------------------------------------------------------------------
E|-----------------------------------------------------------------------

E|-7h9-7------------7-7h9-7---------7----7~~~~--12h14----12~~~~----------
B|-------10-7~-7-10---------10-7-10---10--------------14-----------------
G|-----------------------------------------------------------------------
D|-----------------------------------------------------------------------
A|-----------------------------------------------------------------------
E|-----------------------------------------------------------------------

E|----------5------------------8-7h5-7-5~~~--
B|----5-5-----7-5h7-5-----5-5----------------
G|--/6-6-6--------------/6-6-6---------------      x2
D|-------------------------------------------
A|-------------------------------------------
E|-------------------------------------------
Calificar esta versión:
Aviso: Este fichero es trabajo propio de su transcriptor y representa su interpretación personal de la canción. El material contenido en esta página es para exclusivo uso privado, por lo que se prohibe su reproducción o retransmisión, así como su uso para fines comerciales.