Buscar, La Mancha De Rolando (acordes)

Autor: Anónimo | 38745 visualizaciones

adg
Intro:

              A                 A                 A
E|-----------------|-----------------|--------------------------------------|
B|------------2--2-|------------2--2-|------------2--2--2--2--2--2--2--2--2-|
G|------------2--2-|------------2--2-|------------2--2--2--2--2--2--2--2--2-|
A|--4--2--0---2--2-|--4--2--0---2--2-|--4--2--0---2--2--3--2--2--3--2--2--3-|
D|------------0--0-|------------0--0-|------------0--0--0--0--0--0--0--0--0-|
E|-----------------|-----------------|--------------------------------------|

              A                 A                 A
E|-----------------|-----------------|--------------------------------------|
B|------------2--2-|------------2--2-|------------2--2--2--2--2--2--2--2--2-|
G|------------2--2-|------------2--2-|------------2--2--2--2--2--2--2--2--2-|
A|--4--2--0---2--2-|--4--2--0---2--2-|--4--2--0---2--2--3--2--2--3--2--2--3-|
D|------------0--0-|------------0--0-|------------0--0--0--0--0--0--0--0--0-|
E|-----------------|-----------------|--------------------------------------|

              A                D
E|-----------------|------------2-|
B|------------2--2-|------------3-|
G|------------2--2-|------------2-|
A|--4--2--0---2--2-|--4--2--0-----|
D|------------0--0-|--------------|
E|-----------------|--------------|

Verso:
A
Ya me encontre con la pared
D                    G
todo lo anterior fue buscar y buscar
A
creo que lo se y le ganare
D                          G                 A
porque ya rompi bareras mas duras que esta

Estribillo:
G            D         A
Y ahora solo tengo una vida
G              D           A
y muchas, muchas fichas para jugar
G        D          A
no voy a buscar la salida
G        D        A
yo voy a quedarme aca

A
No se donde voy pero se que esta bien
D                    G
la brujula me guia y no me puedo perder
es este corazón el olfato tambien
la mente esta guardada no me sirve esta vez

Solo: [base de verso y estribillo]

G           D         A
Porque solo tengo una vida
y muchas, muchas fichas para jugar
no voy a buscar la salida
yo voy a quedarme aca


Hay un poder y una mision
la musica nos lleva a conocernos mejor
prestame tu voz, la de tu hermano tambien
hagamos mucho ruido despertemos al dios

G                  D
Ya vas a ver como vas a crecer
A
es hora que te busques una vida mejor
G                          D
y si llegas a encontrar no te olvides de mi
A
ni de todos los hermanos que murieron por vos

Porque solo tengo una vida
y muchas, muchas fichas para jugar
no voy a buscar la salida
yo voy a quedarme aca

G  D  A


Aclaracion en la nota A en el estribillo realiza el tipico arreglo rocanrolero
Calificar esta versión:
Aviso: Este fichero es trabajo propio de su transcriptor y representa su interpretación personal de la canción. El material contenido en esta página es para exclusivo uso privado, por lo que se prohibe su reproducción o retransmisión, así como su uso para fines comerciales.