A Vivir, La Mancha De Rolando (tablatura)

Autor: Anónimo | 32742 visualizaciones

    G                C               F      G C F
Ahi estas a punto de ir al fondo del alma
    G               C            F     G C F    
mas asi en forma de cruz 
y nunca dudas
   G              C                  F       G C F
no sabes si vas a volver el pecho te llama
  G               C         F         G C F
a vivir a ver esa luz a ser inmortal

punteito con distorcion 
----------------------------
----------------------------
--4-5-7--4------------------
-----------7-5-7------------
----------------------------
----------------------------

----------------------------
----------------------------
--4-5-7--4------------------
-----------7-5-3------------
----------------------------
----------------------------

----------------------------
----------------------------
--4-5-7--4------------------
-----------7-5-7------------
----------------------------
----------------------------

----------------------------
----------------------------
--4-5-7--4------------------
-----------7-5-3------------
----------------------------
----------------------------

  G             C           F        G C F
y no se si debo reir o debo callarme 
  G              C                 
F      G C F
y no se si voy a rendir preso a mi final
   G               C           F        G C F
me meti a ver como es y quiero quedarme 
     G                    C             
F      G C F
aprendi que el norte y el sur no son un lugar



y ya no somos lo que fuimos ayer

aunque nacimos con el miedo a crecer

y mis palabras tienen una razón

decirtelo que habra ser???????????????????



de nuevo estamos en el mismo lugar

aunque la muerte no me quiera llevar

estas palabras tienen una razón

tu corazon ahi esta


yeie


----------------------------
------------------5-3---3---
--4-5-7--4------------5-----
-----------7-5--------------
----------------------------
----------------------------

----------------------------
----------------------------
--4-5-7--4------------------
-----------7-5--7-5-3-5-----
----------------------------
----------------------------

----------------------------
------------------5-3---3---
--4-5-7--4------------5-----
-----------7-5--------------
----------------------------
----------------------------

----------------------------
----------------------------
--4-5-7--4------------------
-----------7-5--7-5-3-5-----
----------------------------
----------------------------

(silencio)


ahi que ver el fuego crecer adentro del agua

ahi que ser un buen perdedor despues de ganar

cuando el mundo espieza a correr seguir caminando

y guardar el hambre de gol para la final



y ya no somos lo que fuimos ayer

aunque nacimos con el miedo a crecer

y mis palabras tienen una razón

decirtelo que habra ser???????????????????



de nuevo estamos en el mismo lugar

aunque la muerte no me quiera llevar

estas palabras tienen una razón

tu corazon ahi esta


(vos con cosa extraña)
Y ya no somos lo que fuimos ayer

aunque nacimos con el miedo a crecer

y mis palabras tienen una razón

decirtelo que habra ser???????????????????



de nuevo estamos en el mismo lugar

aunque la muerte no me quiera llevar

estas palabras tienen una razón

tu corazon ahi esta


(punteo final)
(aconpaña con las mismas notas peroen quintas) 

y ya no somos lo que fuimos 
ayer

aunque nacimos con el miedo a crecer

y mis palabras tienen una razón

decirtelo que habra ser???????????????????



de nuevo estamos en el mismo lugar

aunque la muerte no me quiera llevar

estas palabras tienen una razón

tu corazon ahi esta

----------------------------
------------------5-3---3---
--4-5-7--4------------5-----
-----------7-5--------------
----------------------------
----------------------------

----------------------------
----------------------------
--4-5-7--4------------------
-----------7-5--7-5-3-5-----
----------------------------
----------------------------

----------------------------
------------------5-3---3---
--4-5-7--4------------5-----
-----------7-5--------------
----------------------------
----------------------------

----------------------------
----------------------------
--4-5-7--4------------------
-----------7-5--7-5-3-5-----
----------------------------
----------------------------
espero que les sirva.
me llamo Pablo Daniel Labriola
Aguante la Renga y la Mancha.
frog@acmemail.net
Calificar esta versión:
Aviso: Este fichero es trabajo propio de su transcriptor y representa su interpretación personal de la canción. El material contenido en esta página es para exclusivo uso privado, por lo que se prohibe su reproducción o retransmisión, así como su uso para fines comerciales.