Ahora Estoy Solo, La Liga (tablatura)

Autor: Anónimo | 32970 visualizaciones

e--3-3-4--6---------1--3-3-1-1---1-----
b-----------3--3---------------3---3---
g--------------------------------------
d--------------------------------------
a--------------------------------------
E--------------------------------------


e--3-3--6/8-6--8-----1--3-3-1-1---1--
b----------------3--------------3---3
g------------------------------------
d------------------------------------
a------------------------------------
E------------------------------------

          RE#m SOL#m  FA#                      SI
que voy a hacer... si se que ya no me quieres
            RE#m SOL#m       FA#
que puedo hacer... si ya mis sueños se fueron
RE#m                  SOL#m
pienso que no puede ser
RE#m                      SOL#m
y que tienes que volver
DO#m               MI
no, no puede ser...no puedo amar
           FA#                                          SI
y cuando menos lo pensaba todo fue a terminar entre los dos
                FA#        MI                 SI
Y ahora estoy solo... (solo) sin tu cariño no tengo nada
Y ahora estoy solo... (solo) sin tu cariño no tengo nada


e--3-3-4--6---------1--3-3-1-1---1-----
b-----------3--3---------------3---3---
g--------------------------------------
d--------------------------------------
a--------------------------------------
E--------------------------------------


e--3-3--6/8-6--8-----1--3-3-1-1---1--
b----------------3--------------3---3
g------------------------------------
d------------------------------------
a------------------------------------
E------------------------------------



RE#m                  SOL#m
pienso que no puede ser
RE#m                      SOL#m
y que tienes que volver
DO#m               MI
no, no puede ser...no puedo amar
           FA#                                          SI
y cuando menos lo pensaba todo fue a terminar entre los dos
                FA#        MI                 SI
Y ahora estoy solo... (solo) sin tu cariño no tengo nada
Y ahora estoy solo... (solo) sin tu cariño no tengo nada







JEJE NO SE SI ESTE BN PERO YO LA OIGO ASI OJALA Y LE SIRVA

CORRIGANME SI ESTA MAL PORFASS MI CORREO:JUANVALLI195@GMAIL.COM
Calificar esta versión:
Aviso: Este fichero es trabajo propio de su transcriptor y representa su interpretación personal de la canción. El material contenido en esta página es para exclusivo uso privado, por lo que se prohibe su reproducción o retransmisión, así como su uso para fines comerciales.