Naranjada, La Gusana Ciega (tablatura)

Autor: Anónimo | 45054 visualizaciones

-------------------------------------------------------------------
hola me llamo daniel si kieren kontaktarme 
mi mail es lithium_duj@hotmail.com
icq: 58677421
kiero darle las gracias a mi amigo 
rafael por ayudarme a terminar esta rola
atte: gusano (vuelves a ser)
-------------------------------------------------------------------

naranjada (solos)


 intro (0:01)
 (aki rerroren todos los trastes 
 del 11 hasta el 13)
e-11s3---------------------------------      
B--------------------------------------    
G--------------------------------------
D--------------------------------------
A--------------------------------------
E--------------------------------------

 enseguida va esto
 (0:02)
e------------------------------------------------------------------
B------------------------------------------------------------------
G------------------------------------------------------------------
D------------------------------------------------------------------
A-----------3-5h-3-----3-----------------3-5h-3-----3-5h-3---------
E-0-3-4-5-----------5-----5-3---0-3-4-5----------5-----------------

e------------------------------------------------------------------
B------------------------------------------------------------------
G------------------------------------------------------------------
D----3-6-5-3-------3-------3-----3-6-5-3-------3-------------------
A-5-----------5-5-----4-4-----5-----------5-5-----5-4--------------
E------------------------------------------------------------------

e------------------------------------------------------------------
B------------------------------------------------------------------
G------------------------------------------------------------------
D------------------------------------7-----------------------------
A-----------3-5h-3-----3-------------7-----------------------------
E-0-3-4-5-----------5-----5-3--0-3-4-5-----------------------------


 este riff se repite en (0:25)  (0:43) (1:15) 
e--------------------------------------------------
B--------------------------------------------------
G--------------------------------------------------
D------------------7-------------------------------
A-7-7-5-5----------7-------------------------------
E----------8-8-7-7-5-------------------------------


(0:53)
e------------------------------------------------------------------
B------------------------------------------------------------------
G------------------------------------------------------------------
D------------------------------------------------------------------
A----3-5h-3-----3-----------------3-5h-3-----3-5h-3----------------
E-5----------5-----5-3---0-3-4-5----------5------------------------

e------------------------------------------------------------------
B------------------------------------------------------------------
G------------------------------------------------------------------
D----3-6-5-3-------3-------3-----3-6-5-3-------3-------------------
A-5-----------5-5-----4-4-----5-----------5-5-----5-4--------------
E------------------------------------------------------------------

e------------------------------------------------------------------
B------------------------------------------------------------------
G------------------------------------------------------------------
D------------------------------------7-----------------------------
A----------3-5h-3-----3--------------7-----------------------------
E-0-3-4-5----------5-----5-3---0-3-4-5-----------------------------
	

(1:31)
se repite 4 veces
e------------------------------------------------------------------
B------------------------------------------------------------------
G------------------------------------------------------------------
D----3-------3-------3-------3-------------------------------------
A-5-----5-4-----4-3-----3-4-----4-3--------------------------------
E------------------------------------------------------------------

(1:54)
e------------------------------------------------------------------
B------------------------------------------------------------------
G------------------------------------------------------------------
D------------------------------------------------------------------
A----------3-5h-3-----3-----------------3-5h-3-----3-5h-3----------
E-0-3-4-5----------5-----5-3---0-3-4-5----------5------------------

e------------------------------------------------------------------
B------------------------------------------------------------------
G------------------------------------------------------------------
D----3-6-5-3-------3-------3-----3-6-5-3-------3-------------------
A-5-----------5-5-----4-4-----5-----------5-5-----5-4--------------
E------------------------------------------------------------------

e------------------------------------------------------------------
B------------------------------------------------------------------
G------------------------------------------------------------------
D-------------------------------------7----------------------------
A----------3-5h-3-----3---------------7----------------------------
E-0-3-4-5----------5-----5-3---0-3-4--5----------------------------


(2:16)
aki suben medio tono kada nota

e------------------------------------------------------------------
B------------------------------------------------------------------
G------------------------------------------------------------------
D------------------8-----------------------------------------------
A-8-8-6-6----------8-----------------------------------------------
E----------9-9-8-8-6-----------------------------------------------

(2:39)
se repite 4 veces
e------------------------------------------------------------------
B------------------------------------------------------------------
G------------------------------------------------------------------
D----4-------4-------4-------4-------------------------------------
A-6-----6-5-----5-4-----4-5-----5-4--------------------------------
E------------------------------------------------------------------

(2:51)
se repite 3 veces
e------------------------------------------------------------------
B------------------------------------------------------------------
G------------------------------------------------------------------
D------------------------------------------------------------------
A--------4-6h-4-----4---------------4-5h-4-----4-6h-4--------------
E-4-5-6----------6-----6-4---4-5-6----------6----------------------

e------------------------------------------------------------------
B------------------------------------------------------------------
G------------------------------------------------------------------
D----4-7-6-4-------4-------4-----4-7-6-4-------4-------------------
A-6-----------6-6-----5-5-----6-----------6-6-----6-5--------------
E------------------------------------------------------------------


(3:26)
asi finaliza
e------------------------------------------------------------------
B------------------------------------------------------------------
G------------------------------------------------------------------
D------------------------------------------------------------------
A------------------------------------------------------------------
E-4-5-6------------------------------------------------------------
Calificar esta versión:
Aviso: Este fichero es trabajo propio de su transcriptor y representa su interpretación personal de la canción. El material contenido en esta página es para exclusivo uso privado, por lo que se prohibe su reproducción o retransmisión, así como su uso para fines comerciales.