El Tragasables, La Gusana Ciega (acordes)

Autor: carmanchancro | 29925 visualizaciones

bcsos5csosmdee5ggsos
 E5
E |---------------------------------
B |---------------------------------
G |---------------------------------
D |----9-9-9-9----9-9-9-9-----------
A |--6s7-7-7-7--6s7-7-7-7-----------
E |---------------------------------


  C#5
E |---------------------------------
B |---------------------------------
G |---------------------------------
D |----6-6-6-6----6-6-6-6-----------
A |--3s4-4-4-4--3s4-4-4-4-----------
E |---------------------------------

[ a si se debe de tocar con ese pequeño slide [s] ]



INICIO:


E5                                        C#5
tomen asiento y cierren bien las puetas del lugar
E5                             C#5
el espectaculo de hoy va a comenzar


E5                                      C#m
el trapesista pierde el miedo y vuelve a volor

E5                                 C#m
la dama de goma contorsiona su fragilidad


G#    E  C#m
son fenomenos

G#    E   C#m
son fenomenos


E5                                  C#m
el tragasables se perfora y vuelve a sanar
E5                                      C#5
busca el amor de una mujer que no sabe a mar


G#      E  C#m
es un fenomeno

G#      E  C#m
es un fenomeno


E                 C#m          G#
saber que hay un lugar en este mundo
E        C#m          G#
en donde puedes ser tu mismo

E[arpegio]                          C#m
todos tenemos distorciones en el corazon
E[arpegio]                          C#m
todos sabemos esconder nuestra condicion


G#      E   C#m
somos fenomenos

G#      E   C#m
somos fenomenos


E                 C#m          G#
saber que hay un lugar en este mundo
E        C#m          G#
en donde puedes ser tu mismo


E5
E |---------------------------------
B |---------------------------------
G |---------------------------------
D |----9-9-9-9----9-9-9-9-----------   x2
A |--6s7-7-7-7--6s7-7-7-7-----------
E |---------------------------------


E |-----------------------------
B |-----------------------------
G |-----------------------------
D |---5h6-6-6-6---5h6-6-6-6-----      x 2
A |-----------------------------
E |-----------------------------


E |-----------------------------
B |-----------------------------
G |-----------------------------    x 2
D |----9-8-7-6---6-7-8-9--------
A |----7-6-5-4---4-5-6-7--------
E |-----------------------------
    para ra ra   para ra ra



E                 C#m          G#
saber que hay un lugar en este mundo
E        C#m          G#
en donde puedes ser tu mismo




E                 C#m          G#
      que hay un lugar en este mundo
E        C#m          G#
en donde puedes ser tu mismo     

Comentarios del colaborador: www.lacuerda.net

Calificar esta versión:
Aviso: Este fichero es trabajo propio de su transcriptor y representa su interpretación personal de la canción. El material contenido en esta página es para exclusivo uso privado, por lo que se prohibe su reproducción o retransmisión, así como su uso para fines comerciales.