Magia, La Franela (tablatura)

Autor: marcos655 | 18914 visualizaciones

e|----------------------------------------------------
b|--5/7--9-5--2-2-5------------2----------------2-5-2-
g|------------------2------2-4---4--2-4-2-1-2-4-------
D|---------------------2-4----------------------------
A|----------------------------------------------------
E|----------------------------------------------------


e|----------------------------------------------------
b|--5/7--9-5--2-2-5------------2----------------------
g|------------------2------2-4---4--2-4-2-1-2~--------
D|---------------------2-4----------------------------
A|----------------------------------------------------
E|----------------------------------------------------


Esta seria la parte que toca solo la guitarra... No es perfecta... pero como para tener algo con que empezar ta buena... escuchen el tema y vallan comparando
Calificar esta versión:
Aviso: Este fichero es trabajo propio de su transcriptor y representa su interpretación personal de la canción. El material contenido en esta página es para exclusivo uso privado, por lo que se prohibe su reproducción o retransmisión, así como su uso para fines comerciales.