Reggae Fumon, La Cumparsita Rock 72 (acordes)

Autor: fedeeef96 | 20842 visualizaciones

fasosmlamimresimsol


ACORDES:> Sol Re Fa#m Sim Mim La 

Riff:
   Sol          La           Fa#m            Sim

1]----------------------------------------------------------
2]------3------3-----5-------5-----2-------2------7-------7-
3]----4------4-----6-------6-----2-------2------7-------7---
4]--5----5-5-----7-----7-7-----4-----4-4------9-----9-9-----
5]----------------------------------------------------------
6]----------------------------------------------------------  x2

   Sol           La             Sim
1]-------------------------5-----7--------------------------
2]------3------3-----------------7--------------------------
3]----4------4-----7-6-7-9---9-7-7--------------------------
4]--5----5-5-----7---------------9--------------------------
5]----------------------------------------------------------
6]----------------------------------------------------------


saxo sobre: [RE/SOL/;MIm/LA]x2

            Re                Sol 
Que pasa contigo y con la soledad
             Mim                  La 
Que pasa que nadie nos escucha mi amor
Que pasa que todos hoy se tratan tan mal
que tal si fumamos uno en mi habitación

No sabemos cuando esto va a terminar
Si el destino injusto nos quiere separar
Por que los caminos que nos llevan mi amor
Sabes que algun dia se pueden encontrar

saxo

Siempre veo las cosas en el mismo lugar
Paso rapido el tiempo y es orgullo lo que siento
Y como vivo este momento no te puedo explicar
Quiero que estes al lado de mi vida todo el dia todavía

No sabia que era tanta pasion
quiero que estes al lado de mi vida todo el dia todavía
no sabia que eras tanta pasion
quiero que estes al lado de mi vida todo el dia en sintonia

saxo

Que pasa contigo y con la soledad
Que pasa que nadie nos escucha mi amor
Que pasa que todos hoy se tratan tan mal
que tal si fumamos uno en mi habitación

No sabemos cuando esto va a terminar
Si el destino injusto nos quiere separar
Por que los caminos que nos llevan mi amor
Sabes que algun dia se pueden encontrar

saxo

Siempre veo las cosas en el mismo lugar
Paso rapido el tiempo y es orgullo lo que siento
Y como vivo este momento no te puedo explicar
Quiero que estes al lado de mi vida todo el dia todavía

No sabia que era tanta pasion
quiero que estes al lado de mi vida todo el dia todavía
no sabia que eras tanta pasion
quiero que estes al lado de mi vida todo el dia en sintonia

saxo

riff

temazo!!
Aganla con sejilla asi queda mejor
si queda mal es porque no se usar esta porqueria es el primer
tema que mando xD
suerte





Calificar esta versión:
Aviso: Este fichero es trabajo propio de su transcriptor y representa su interpretación personal de la canción. El material contenido en esta página es para exclusivo uso privado, por lo que se prohibe su reproducción o retransmisión, así como su uso para fines comerciales.