La 72, La Cumparsita Rock 72 (acordes)

Autor: fedeeef96 | 34449 visualizaciones

amcfg


intro: C,Am,F,G,C

C                             Am
Esta es una avenida para debatir y pensar lo vivido
          F           G                  C
Para revivir otra vez, el verano y el frio

Buenas y malas, locas secuencias

Cabeza de gato, mala convivencia

Todo en la estacion, en la 72

Vamos para la rambla, nos vamos los dos

Se levanta el humor, veni consolate en la 72


La 72, compañeras de paquetes que llevan

Companeras de bolsitas perdidas, delirando fugitivas.


E -----16--14h-16---14-11----------------
B 12-7---------------------14-12---------
G ---------------------------------13----
D ---------------------------------------
a ---------------------------------------
E ---------------------------------------



E --16--14h-16---14-11-------------------------------
B ---------------------14-12-----14---777--77--9--7--
G ---------------------------------------------------
D ---------------------------------------------------
a ---------------------------------------------------
E ---------------------------------------------------
9




Esta es la avenida la denominada vias,

La que acerca compania y te delira fantasias


Hay que agradecerle tambien

Sus escondites para no correr

Por si acaso descarte el papel

La luz mala se acerca la ley

Que loco, no rey? Me decian los pibes

Como algo material se le podia tomar tanto afecto


Esta es la avenida la denominada vias

La que acerca companias y te delira fantasias

La que te hizo reir, la que te hizo bajar,

La que te hizo correr, la que te hizo flashear

La que a veces colgas por un tiempo

Y si no estamos se siente el silencio

Hooooo avenida la 72!!!


Hay mi dios si las vias hablaran

Que seria de todos

Por lo menos pensaran.





Calificar esta versión:
Aviso: Este fichero es trabajo propio de su transcriptor y representa su interpretación personal de la canción. El material contenido en esta página es para exclusivo uso privado, por lo que se prohibe su reproducción o retransmisión, así como su uso para fines comerciales.