Matame Antes, La Cuca (tablatura)

Autor: rene rivera rodriguez | 46246 visualizaciones



INTRO

  x4
1|--------------------------||
2|--------------------------||
3|------------------6-------||
4|------------------6-7-6---||
5|------4-7-6-4-4~--4-7-6---||
6|---4-5-------7------5-4---||

¿Qué es lo que tienes en la boca? es esa palabra...

1|--------------|--------------||
2|--------------|--------------||
3|---6----------|---6----------||
4|---6--7--6-6--|---6--7--6-6--||
5|---4--7--6-6--|---4--7--6-6--||
6|------5--4-4--|------5--4-4--||

...no quiero que se abra tengo tanto miedo de su contenido

1|--------------|--------------||
2|--------------|--------------||
3|---6----------|---6----------||
4|---6--7--6-6--|---6--7--6-6--||
5|---4--7--6-6--|---4--7--6-6--||
6|------5--4-4--|------5--4-4--||

¿Qué es lo que está pasando por esa cabeza?...

1|-----------------------|------------||
2|-----------------------|------------||
3|---------------6-------|-6----------||
4|---------------6--7-6--|-6--7--6-6--||
5|------4-7-6-4--4--7-6--|-4--7--6-6--||
6|---4-5-------7----5-4--|----5--4-4--||

...una promesa, o mi mala suerte que será no verte

1|--------------|-----------|------------||
2|--------------|-----------|------------||
3|---6----------|---6-------|------------||
4|---6--7--6-6--|---6--7--6-|-6-6-6-6-6--||
5|---4--7--6-6--|---4--7--6-|-6-6-6-6-6--||
6|------5--4-4--|------5--4-|-4-4-4-4-4--||

Quiero pedirte un favor...

1|--4-4-4-4-4-4-|-5-5-5-5-5-5-||
2|--5-5-5-5-5-5-|-5-5-5-5-5-5-||
3|--6-6-6-6-6-6-|-6-6-6-6-6-6-||
4|--------------|-------------||
5|--------------|-------------||
6|--------------|-------------||

...ármate con todo tu valor

1|--4-4-4-4-4-4-|---------------||
2|--5-5-5-5-5-5-|---------------||
3|--6-6-6-6-6-6-|---------------||
4|--------------|-6-7-7-7-7-7-7-||
5|--------------|-6-7-7-7-7-7-7-||
6|--------------|-4-5-5-5-5-5-5-||

CORO:

Mátame antes de decirme no...

1|--------------------------||
2|--------------------------||
3|--6-----------------------||
4|--6-6-6-7-----------------||
5|--4-6-6-7------4-7-6-4----||
6|----4-4-5--4-5---------7--||

...Mátame antes de negármelo...

1|--------------------------||
2|--------------------------||
3|--6-----------------------||
4|--6-6-6-7-----------------||
5|--4-6-6-7------4-7-6-4----||
6|----4-4-5--4-5---------7--||

...Mátame antes...

1|--------------------------||
2|--------------------------||
3|--6-----------------------||
4|--6-6-6-7-----------------||
5|--4-6-6-7------4-7-6-4----||
6|----4-4-5--4-5---------7--||

...Mátame antes

1|-------------||
2|-------------||
3|-6-9-8-6-----||
4|-6-9-8-6-6---||
5|-4-7-6-4-6---||
6|---------4---||

No me resigno a la idea del rechazo

1|--------------|--------------||
2|--------------|--------------||
3|---6----------|---6----------||
4|---6--7--6-6--|---6--7--6-6--||
5|---4--7--6-6--|---4--7--6-6--||
6|------5--4-4--|------5--4-4--||

yo quiero echarte el lazo, darte el embarazo y mi vida entera

1|--------------|--------------||
2|--------------|--------------||
3|---6----------|---6----------||
4|---6--7--6-6--|---6--7--6-6--||
5|---4--7--6-6--|---4--7--6-6--||
6|------5--4-4--|------5--4-4--||

¿Qué pasó con aquél hombre? el que yo era...

1|-----------------------|------------||
2|-----------------------|------------||
3|---------------6-------|-6----------||
4|---------------6--7-6--|-6--7--6-6--||
5|------4-7-6-4--4--7-6--|-4--7--6-6--||
6|---4-5-------7----5-4--|----5--4-4--||

...de vida parrandera que con cualquiera y sin saber su nombre

1|--------------|-----------|------------||
2|--------------|-----------|------------||
3|---6----------|---6-------|------------||
4|---6--7--6-6--|---6--7--6-|-6-6-6-6-6--||
5|---4--7--6-6--|---4--7--6-|-6-6-6-6-6--||
6|------5--4-4--|------5--4-|-4-4-4-4-4--||

No lo quiero imaginar...

1|--4-4-4-4-4-4-|-5-5-5-5-5-5-||
2|--5-5-5-5-5-5-|-5-5-5-5-5-5-||
3|--6-6-6-6-6-6-|-6-6-6-6-6-6-||
4|--------------|-------------||
5|--------------|-------------||
6|--------------|-------------||

...no quiero pensar en ese sufrimiento...

1|--4-4-4-4-4-4-|-5-5-5-5-5-5-||
2|--5-5-5-5-5-5-|-5-5-5-5-5-5-||
3|--6-6-6-6-6-6-|-6-6-6-6-6-6-||
4|--------------|-------------||
5|--------------|-------------||
6|--------------|-------------||

...en ese momento...

1|--4-4-4-4-4-4-|-5-5-5-5-5-5-||
2|--5-5-5-5-5-5-|-5-5-5-5-5-5-||
3|--6-6-6-6-6-6-|-6-6-6-6-6-6-||
4|--------------|-------------||
5|--------------|-------------||
6|--------------|-------------||

...no me hagas esa maldad

1|--4-4-4-4-4-4-|---------------||
2|--5-5-5-5-5-5-|---------------||
3|--6-6-6-6-6-6-|---------------||
4|--------------|-6-7-7-7-7-7-7-||
5|--------------|-6-7-7-7-7-7-7-||
6|--------------|-4-5-5-5-5-5-5-||

CORO:

Mátame antes de decirme no...

1|--------------------------||
2|--------------------------||
3|--6-----------------------||
4|--6-6-6-7-----------------||
5|--4-6-6-7------4-7-6-4----||
6|----4-4-5--4-5---------7--||

...Mátame antes de negármelo...

1|--------------------------||
2|--------------------------||
3|--6-----------------------||
4|--6-6-6-7-----------------||
5|--4-6-6-7------4-7-6-4----||
6|----4-4-5--4-5---------7--||

...Mátame antes...

1|--------------------------||
2|--------------------------||
3|--6-----------------------||
4|--6-6-6-7-----------------||
5|--4-6-6-7------4-7-6-4----||
6|----4-4-5--4-5---------7--||

...Mátame antes

1|-------------||
2|-------------||
3|-6-9-8-6-----||
4|-6-9-8-6-6---||
5|-4-7-6-4-6---||
6|---------4---||

SOLO:

1|-----------------------------------------------------||
2|-----------------------------------------------------||
3|-----------------------------------------------------||
4|--------------------------------------------16-18b18-||
5|--------16-19b-18-16~-18-15~---------x16-x19---------||
6|--16h17----------------------x16-x17-----------------||

1|---------------------------------------------------||
2|---------------------------------------------------||
3|---------------------------------------------------||
4|--16~-----------------------16-18b18-16-19-18-16~--||
5|------19-18---------x16-x19------------------------||
6|------------x16-x17--------------------------------||

1|--------------------------------------------||
2|-----18----17-15~-17-14~--------------------||
3|-------------------------13-13-13-13-13-13--||
4|--16----16---------------14-14-14-14-14-14--||
5|--------------------------------------------||
6|--------------------------------------------||

1|------------------------------------------------||
2|------------------------------------------------||
3|--14-14-14-14-14-14--13-13-13-13-13---16-14-13--||
4|--14-14-14-14-14-14--14-14-14-14-14---14-14-14--||
5|------------------------------------------------||
6|------------------------------------------------||

1|----------------------------------------------------||
2|----------------------------------------------------||
3|-13-13-13-13-13-13--14-14-14-14-14--13-13-13-13-13--||
4|-14-14-14-14-14-14--14-14-14-14-14--14-14-14-14-14--||
5|----------------------------------------------------||
6|----------------------------------------------------||

1|-------------||
2|-------------||
3|--16-14-13---||
4|--14-14-14---||
5|-------------||
6|-------------||

¿Qué es lo que tienes en las manos? mi corazon latente,
dime ¿qué se siente?

1|--------------|-----------|------------||
2|--------------|-----------|------------||
3|---6----------|---6-------|------------||
4|---6--7--6-6--|---6--7--6-|-6-6-6-6-6--||
5|---4--7--6-6--|---4--7--6-|-6-6-6-6-6--||
6|------5--4-4--|------5--4-|-4-4-4-4-4--||

CORO:

Mátame antes de decirme no...

1|--------------------------||
2|--------------------------||
3|--6-----------------------||
4|--6-6-6-7-----------------||
5|--4-6-6-7------4-7-6-4----||
6|----4-4-5--4-5---------7--||

...Mátame antes de negármelo...

1|--------------------------||
2|--------------------------||
3|--6-----------------------||
4|--6-6-6-7-----------------||
5|--4-6-6-7------4-7-6-4----||
6|----4-4-5--4-5---------7--||

...Mátame antes...

  x5
1|--------------------------||
2|--------------------------||
3|--6-----------------------||
4|--6-6-6-7-----------------||
5|--4-6-6-7------4-7-6-4----||
6|----4-4-5--4-5---------7--||

...Mátame antes

1|-------------||
2|-------------||
3|-6-9-8-6-----||
4|-6-9-8-6-6---||
5|-4-7-6-4-6---||
6|---------4---||





Comentarios del colaborador: http://lacuerda.net/tabs/c/cuca/matame_antes.shtml

Calificar esta versión:
Aviso: Este fichero es trabajo propio de su transcriptor y representa su interpretación personal de la canción. El material contenido en esta página es para exclusivo uso privado, por lo que se prohibe su reproducción o retransmisión, así como su uso para fines comerciales.