Cara De Pizza, La Cuca (tablatura)

Autor: aori_moni | 33788 visualizaciones



Riff 1
e|--7--
B|--7--
Es una cara no!   Riff 1
Es una pizza no!   Riff 1
Es la señorita cara de pizza

Riff 2
E|--5-5-5-5----------------|-5-5-5-5--------------------
B|--5-5-5-5----------------|-5-5-5-5--------------------
G|-------------------------|----------------------------
D|---------------7---------|----------7-7-8-8-9-9-10-10-
A|--------0-4-0-----0-4-0--|----------7-7-8-8-9-9-10-10-
E|-------------------------|----------5-5-6-6-7-7-8--8-- 

Riff 3
e|-7-7-7-7-7--3-2--
B|-7-7-7-7-7--3-2--
G|-----------------
                                                  X2
e|-7-7-7-7-7--10-9--
B|-7-7-7-7-7--10-9--
G|------------------

Dicen que su madre durante el embarazo
se comio diez pizzas de un chingadazo
andan diciendo que es una mutante
a mi no me interesa yo quiero ser su amante

Coro:
D|-----7------------7--7/10--9~---
A|--------7--6--------------------
E|--5------------5----------------

Srita cara de pizza 
yo te amo cara de pizza
eres un amor!

   Riff 2 (x2)

Riff 3
e|-7-7-7-7-7--3-2--
B|-7-7-7-7-7--3-2--
G|-----------------

e|-7-7-7-7-7--10-9--
B|-7-7-7-7-7--10-9--
G|------------------
Tiene un corazon que es la envidia de cualquiera
yo la adoraria hasta el dia que se muriera

ella es una belleza
Riff 5
e|-7--5/0--
B|-7--5/0--
G|---------

ella si tiene cabeza
Riff 6
e|--7--3/0--
B|--7--3/0--
G|----------

ella si que me apasiona
Riff 5
e|-7--5/0--
B|-7--5/0--
G|---------

ella es buena persona
Riff 6
e|--7--3/0--
B|--7--3/0--
G|----------

ella si se ve sabrosa
Riff 5
e|-7--5/0--
B|-7--5/0--
G|---------

yo quiero que sea mi esposa
Riff 6
e|--7--3/0--
B|--7--3/0--
G|----------



Coro:

*Despues del coro va el solo de bajo

    -----------------------------------------------------------
    -----------------------------------------------------------
    --------------------------------------8h------------------
    ----6-6------------6-6-5-5-----5-5-------------------------
    --------6-6----6-6---------6-6-----------------------------
    ------------4-4---------------------------------------------

    -----------------------------------------------------------
    -----------------------------------------------------------
    -----------------------------------------------------------
    ---6-6--------------6-6--5-5-----6-6----8h-----------------
    -------6-6------6-6----------6-6--------------------------
    -----------4-4-------------------------------------------

Es como apreciar una obra de arte
picasso la tendria como unico estandarte
quiero estirarle sus cachetes de queso
en su boquita de pimiento yo quiero darle un beso
yo la adoraria de cualquier manera

con mariscos en la cara a la marinera!





Riff 8
D|--------------------
A|-7-7-8-8-9-9-10-10--
E|-5-5-6-6-7-7-8--8---
 (Se toca varias veces en forma rapida)

Coro (x2)

  Riff 2 (x2)


Riff 3
e|-7-7-7-7-7--3-2--
B|-7-7-7-7-7--3-2--
G|-----------------
                                                  X2
e|-7-7-7-7-7--10-9--
B|-7-7-7-7-7--10-9--
G|------------------

Ahora voy a verla y voy bien alimentado 
no vaya a pasar lo que le paso aquel dia pasado
llegue con mucha hambre, le chingue una rebanada
espero me perdone y no me mande a la chingada

Coro (x2)





Calificar esta versión:
Aviso: Este fichero es trabajo propio de su transcriptor y representa su interpretación personal de la canción. El material contenido en esta página es para exclusivo uso privado, por lo que se prohibe su reproducción o retransmisión, así como su uso para fines comerciales.